  0
SECTION
  2
HEADER
  9
$ACADVER
  1
AC1032
  9
$ACADMAINTVER
 90
      174
  9
$DWGCODEPAGE
  3
ANSI_932
  9
$LASTSAVEDBY
  1
kikaku01
  9
$REQUIREDVERSIONS
160
                 0
  9
$INSBASE
 10
0.0
 20
0.0
 30
0.0
  9
$EXTMIN
 10
0.0
 20
0.0
 30
0.0
  9
$EXTMAX
 10
4050.000000000003
 20
2820.0
 30
0.0
  9
$LIMMIN
 10
0.0
 20
0.0
  9
$LIMMAX
 10
420.0
 20
297.0
  9
$ORTHOMODE
 70
     0
  9
$REGENMODE
 70
     1
  9
$FILLMODE
 70
     1
  9
$QTEXTMODE
 70
     0
  9
$MIRRTEXT
 70
     0
  9
$LTSCALE
 40
1.0
  9
$ATTMODE
 70
     1
  9
$TEXTSIZE
 40
10.0
  9
$TRACEWID
 40
1.0
  9
$TEXTSTYLE
  7
NS横文字
  9
$CLAYER
  8
0
  9
$CELTYPE
  6
ByLayer
  9
$CECOLOR
 62
   256
  9
$CELTSCALE
 40
1.0
  9
$DISPSILH
 70
     0
  9
$DIMSCALE
 40
1.0
  9
$DIMASZ
 40
10.0
  9
$DIMEXO
 40
2.0
  9
$DIMDLI
 40
3.75
  9
$DIMRND
 40
0.0
  9
$DIMDLE
 40
0.0
  9
$DIMEXE
 40
1.25
  9
$DIMTP
 40
0.0
  9
$DIMTM
 40
0.0
  9
$DIMTXT
 40
20.0
  9
$DIMCEN
 40
2.5
  9
$DIMTSZ
 40
0.0
  9
$DIMTOL
 70
     0
  9
$DIMLIM
 70
     0
  9
$DIMTIH
 70
     0
  9
$DIMTOH
 70
     0
  9
$DIMSE1
 70
     0
  9
$DIMSE2
 70
     0
  9
$DIMTAD
 70
     1
  9
$DIMZIN
 70
     8
  9
$DIMBLK
  1
Open
  9
$DIMASO
 70
     1
  9
$DIMSHO
 70
     1
  9
$DIMPOST
  1

  9
$DIMAPOST
  1

  9
$DIMALT
 70
     0
  9
$DIMALTD
 70
     3
  9
$DIMALTF
 40
0.03937007874016
  9
$DIMLFAC
 40
1.0
  9
$DIMTOFL
 70
     1
  9
$DIMTVP
 40
0.0
  9
$DIMTIX
 70
     0
  9
$DIMSOXD
 70
     0
  9
$DIMSAH
 70
     0
  9
$DIMBLK1
  1

  9
$DIMBLK2
  1

  9
$DIMSTYLE
  2
NS寸法
  9
$DIMCLRD
 70
     0
  9
$DIMCLRE
 70
     0
  9
$DIMCLRT
 70
     0
  9
$DIMTFAC
 40
1.0
  9
$DIMGAP
 40
1.0
  9
$DIMJUST
 70
     0
  9
$DIMSD1
 70
     0
  9
$DIMSD2
 70
     0
  9
$DIMTOLJ
 70
     0
  9
$DIMTZIN
 70
     8
  9
$DIMALTZ
 70
     0
  9
$DIMALTTZ
 70
     0
  9
$DIMUPT
 70
     0
  9
$DIMDEC
 70
     2
  9
$DIMTDEC
 70
     2
  9
$DIMALTU
 70
     2
  9
$DIMALTTD
 70
     3
  9
$DIMTXSTY
  7
Standard
  9
$DIMAUNIT
 70
     0
  9
$DIMADEC
 70
     0
  9
$DIMALTRND
 40
0.0
  9
$DIMAZIN
 70
     0
  9
$DIMDSEP
 70
    44
  9
$DIMATFIT
 70
     3
  9
$DIMFRAC
 70
     0
  9
$DIMLDRBLK
  1

  9
$DIMLUNIT
 70
     2
  9
$DIMLWD
 70
    -2
  9
$DIMLWE
 70
    -2
  9
$DIMTMOVE
 70
     0
  9
$DIMFXL
 40
1.0
  9
$DIMFXLON
 70
     0
  9
$DIMJOGANG
 40
0.7853981633974483
  9
$DIMTFILL
 70
     0
  9
$DIMTFILLCLR
 70
     0
  9
$DIMARCSYM
 70
     0
  9
$DIMLTYPE
  6

  9
$DIMLTEX1
  6

  9
$DIMLTEX2
  6

  9
$DIMTXTDIRECTION
 70
     0
  9
$LUNITS
 70
     2
  9
$LUPREC
 70
     4
  9
$SKETCHINC
 40
1.0
  9
$FILLETRAD
 40
0.0
  9
$AUNITS
 70
     0
  9
$AUPREC
 70
     0
  9
$MENU
  1
.
  9
$ELEVATION
 40
0.0
  9
$PELEVATION
 40
0.0
  9
$THICKNESS
 40
0.0
  9
$LIMCHECK
 70
     0
  9
$CHAMFERA
 40
0.0
  9
$CHAMFERB
 40
0.0
  9
$CHAMFERC
 40
0.0
  9
$CHAMFERD
 40
0.0
  9
$SKPOLY
 70
     0
  9
$TDCREATE
 40
2459239.484710648
  9
$TDUCREATE
 40
2459239.109710648
  9
$TDUPDATE
 40
2459249.624756945
  9
$TDUUPDATE
 40
2459249.249756944
  9
$TDINDWG
 40
0.0099421296
  9
$TDUSRTIMER
 40
0.0099421296
  9
$USRTIMER
 70
     1
  9
$ANGBASE
 50
0.0
  9
$ANGDIR
 70
     0
  9
$PDMODE
 70
     0
  9
$PDSIZE
 40
0.0
  9
$PLINEWID
 40
0.0
  9
$SPLFRAME
 70
     0
  9
$SPLINETYPE
 70
     6
  9
$SPLINESEGS
 70
     8
  9
$HANDSEED
  5
6C06
  9
$SURFTAB1
 70
     6
  9
$SURFTAB2
 70
     6
  9
$SURFTYPE
 70
     6
  9
$SURFU
 70
     6
  9
$SURFV
 70
     6
  9
$UCSBASE
  2

  9
$UCSNAME
  2

  9
$UCSORG
 10
0.0
 20
0.0
 30
0.0
  9
$UCSXDIR
 10
1.0
 20
0.0
 30
0.0
  9
$UCSYDIR
 10
0.0
 20
1.0
 30
0.0
  9
$UCSORTHOREF
  2

  9
$UCSORTHOVIEW
 70
     0
  9
$UCSORGTOP
 10
0.0
 20
0.0
 30
0.0
  9
$UCSORGBOTTOM
 10
0.0
 20
0.0
 30
0.0
  9
$UCSORGLEFT
 10
0.0
 20
0.0
 30
0.0
  9
$UCSORGRIGHT
 10
0.0
 20
0.0
 30
0.0
  9
$UCSORGFRONT
 10
0.0
 20
0.0
 30
0.0
  9
$UCSORGBACK
 10
0.0
 20
0.0
 30
0.0
  9
$PUCSBASE
  2

  9
$PUCSNAME
  2

  9
$PUCSORG
 10
0.0
 20
0.0
 30
0.0
  9
$PUCSXDIR
 10
1.0
 20
0.0
 30
0.0
  9
$PUCSYDIR
 10
0.0
 20
1.0
 30
0.0
  9
$PUCSORTHOREF
  2

  9
$PUCSORTHOVIEW
 70
     0
  9
$PUCSORGTOP
 10
0.0
 20
0.0
 30
0.0
  9
$PUCSORGBOTTOM
 10
0.0
 20
0.0
 30
0.0
  9
$PUCSORGLEFT
 10
0.0
 20
0.0
 30
0.0
  9
$PUCSORGRIGHT
 10
0.0
 20
0.0
 30
0.0
  9
$PUCSORGFRONT
 10
0.0
 20
0.0
 30
0.0
  9
$PUCSORGBACK
 10
0.0
 20
0.0
 30
0.0
  9
$USERI1
 70
     0
  9
$USERI2
 70
     0
  9
$USERI3
 70
     0
  9
$USERI4
 70
     0
  9
$USERI5
 70
     0
  9
$USERR1
 40
0.0
  9
$USERR2
 40
0.0
  9
$USERR3
 40
0.0
  9
$USERR4
 40
0.0
  9
$USERR5
 40
0.0
  9
$WORLDVIEW
 70
     1
  9
$SHADEDGE
 70
     3
  9
$SHADEDIF
 70
    70
  9
$TILEMODE
 70
     1
  9
$MAXACTVP
 70
    64
  9
$PINSBASE
 10
0.0
 20
0.0
 30
0.0
  9
$PLIMCHECK
 70
     0
  9
$PEXTMIN
 10
0.0
 20
0.0
 30
0.0
  9
$PEXTMAX
 10
297.0
 20
210.0
 30
0.0
  9
$PLIMMIN
 10
0.0
 20
0.0
  9
$PLIMMAX
 10
297.0
 20
210.0
  9
$UNITMODE
 70
     0
  9
$VISRETAIN
 70
     1
  9
$PLINEGEN
 70
     0
  9
$PSLTSCALE
 70
     1
  9
$TREEDEPTH
 70
  3020
  9
$CMLSTYLE
  2
Standard
  9
$CMLJUST
 70
     0
  9
$CMLSCALE
 40
20.0
  9
$PROXYGRAPHICS
 70
     1
  9
$MEASUREMENT
 70
     1
  9
$CELWEIGHT
370
    -1
  9
$ENDCAPS
280
     0
  9
$JOINSTYLE
280
     0
  9
$LWDISPLAY
290
     0
  9
$INSUNITS
 70
     4
  9
$HYPERLINKBASE
  1

  9
$STYLESHEET
  1

  9
$XEDIT
290
     1
  9
$CEPSNTYPE
380
     0
  9
$PSTYLEMODE
290
     1
  9
$FINGERPRINTGUID
  2
{749227E2-A959-8D41-8B03-9E258DF0B17D}
  9
$VERSIONGUID
  2
{CDF80AA6-2009-BA4E-A27B-0EC8C1A55643}
  9
$EXTNAMES
290
     1
  9
$PSVPSCALE
 40
0.0
  9
$OLESTARTUP
290
     0
  9
$SORTENTS
280
   127
  9
$INDEXCTL
280
     0
  9
$HIDETEXT
280
     1
  9
$XCLIPFRAME
280
     2
  9
$HALOGAP
280
     0
  9
$OBSCOLOR
 70
   257
  9
$OBSLTYPE
280
     0
  9
$INTERSECTIONDISPLAY
280
     0
  9
$INTERSECTIONCOLOR
 70
   257
  9
$DIMASSOC
280
     2
  9
$PROJECTNAME
  1

  9
$CAMERADISPLAY
290
     0
  9
$LENSLENGTH
 40
50.0
  9
$CAMERAHEIGHT
 40
0.0
  9
$STEPSPERSEC
 40
2.0
  9
$STEPSIZE
 40
6.0
  9
$3DDWFPREC
 40
2.0
  9
$PSOLWIDTH
 40
5.0
  9
$PSOLHEIGHT
 40
80.0
  9
$LOFTANG1
 40
1.570796326794896
  9
$LOFTANG2
 40
1.570796326794896
  9
$LOFTMAG1
 40
0.0
  9
$LOFTMAG2
 40
0.0
  9
$LOFTPARAM
 70
     7
  9
$LOFTNORMALS
280
     1
  9
$LATITUDE
 40
37.795
  9
$LONGITUDE
 40
-122.394
  9
$NORTHDIRECTION
 40
0.0
  9
$TIMEZONE
 70
 -8000
  9
$LIGHTGLYPHDISPLAY
280
     1
  9
$TILEMODELIGHTSYNCH
280
     1
  9
$CMATERIAL
347
EC
  9
$SOLIDHIST
280
     0
  9
$SHOWHIST
280
     1
  9
$DWFFRAME
280
     2
  9
$DGNFRAME
280
     0
  9
$REALWORLDSCALE
290
     1
  9
$INTERFERECOLOR
 62
     1
  9
$INTERFEREOBJVS
345
F9
  9
$INTERFEREVPVS
346
F6
  9
$CSHADOW
280
     0
  9
$SHADOWPLANELOCATION
 40
0.0
  0
ENDSEC
  0
SECTION
  2
CLASSES
  0
CLASS
  1
ACDBDICTIONARYWDFLT
  2
AcDbDictionaryWithDefault
  3
ObjectDBX Classes
 90
        0
 91
        1
280
     0
281
     0
  0
CLASS
  1
DICTIONARYVAR
  2
AcDbDictionaryVar
  3
ObjectDBX Classes
 90
        0
 91
       22
280
     0
281
     0
  0
CLASS
  1
TABLESTYLE
  2
AcDbTableStyle
  3
ObjectDBX Classes
 90
     4095
 91
        1
280
     0
281
     0
  0
CLASS
  1
MATERIAL
  2
AcDbMaterial
  3
ObjectDBX Classes
 90
     1153
 91
        3
280
     0
281
     0
  0
CLASS
  1
VISUALSTYLE
  2
AcDbVisualStyle
  3
ObjectDBX Classes
 90
     4095
 91
       24
280
     0
281
     0
  0
CLASS
  1
SCALE
  2
AcDbScale
  3
ObjectDBX Classes
 90
     1153
 91
       17
280
     0
281
     0
  0
CLASS
  1
MLEADERSTYLE
  2
AcDbMLeaderStyle
  3
ACDB_MLEADERSTYLE_CLASS
 90
     4095
 91
        5
280
     0
281
     0
  0
CLASS
  1
CELLSTYLEMAP
  2
AcDbCellStyleMap
  3
ObjectDBX Classes
 90
     1152
 91
        1
280
     0
281
     0
  0
CLASS
  1
EXACXREFPANELOBJECT
  2
ExAcXREFPanelObject
  3
EXAC_ESW
 90
     1025
 91
        0
280
     0
281
     0
  0
CLASS
  1
NPOCOLLECTION
  2
AcDbImpNonPersistentObjectsCollection
  3
ObjectDBX Classes
 90
     1153
 91
        0
280
     0
281
     0
  0
CLASS
  1
LAYER_INDEX
  2
AcDbLayerIndex
  3
ObjectDBX Classes
 90
        0
 91
        0
280
     0
281
     0
  0
CLASS
  1
SPATIAL_INDEX
  2
AcDbSpatialIndex
  3
ObjectDBX Classes
 90
        0
 91
        0
280
     0
281
     0
  0
CLASS
  1
IDBUFFER
  2
AcDbIdBuffer
  3
ObjectDBX Classes
 90
        0
 91
        0
280
     0
281
     0
  0
CLASS
  1
ACDBSECTIONVIEWSTYLE
  2
AcDbSectionViewStyle
  3
ObjectDBX Classes
 90
     1025
 91
        2
280
     0
281
     0
  0
CLASS
  1
ACDBDETAILVIEWSTYLE
  2
AcDbDetailViewStyle
  3
ObjectDBX Classes
 90
     1025
 91
        2
280
     0
281
     0
  0
CLASS
  1
SORTENTSTABLE
  2
AcDbSortentsTable
  3
ObjectDBX Classes
 90
        0
 91
        1
280
     0
281
     0
  0
CLASS
  1
ACDB_MTEXTOBJECTCONTEXTDATA_CLASS
  2
AcDbMTextObjectContextData
  3
ObjectDBX Classes
 90
     1153
 91
        6
280
     0
281
     0
  0
CLASS
  1
ACDB_TEXTOBJECTCONTEXTDATA_CLASS
  2
AcDbTextObjectContextData
  3
ObjectDBX Classes
 90
     1153
 91
        5
280
     0
281
     0
  0
CLASS
  1
DIMASSOC
  2
AcDbDimAssoc
  3
"AcDbDimAssoc|Product Desc:     AcDim ARX App For Dimension|Company:          Autodesk, Inc.|WEB Address:      www.autodesk.com"
 90
        0
 91
        0
280
     0
281
     0
  0
CLASS
  1
MULTILEADER
  2
AcDbMLeader
  3
ACDB_MLEADER_CLASS
 90
     1025
 91
        0
280
     0
281
     1
  0
CLASS
  1
ACDB_ALDIMOBJECTCONTEXTDATA_CLASS
  2
AcDbAlignedDimensionObjectContextData
  3
ObjectDBX Classes
 90
     1153
 91
        0
280
     0
281
     0
  0
CLASS
  1
ACDB_LEADEROBJECTCONTEXTDATA_CLASS
  2
AcDbLeaderObjectContextData
  3
ObjectDBX Classes
 90
     1153
 91
        0
280
     0
281
     0
  0
CLASS
  1
ACDB_MLEADEROBJECTCONTEXTDATA_CLASS
  2
AcDbMLeaderObjectContextData
  3
ObjectDBX Classes
 90
     1153
 91
        0
280
     0
281
     0
  0
CLASS
  1
ACDB_HATCHVIEWCONTEXTDATA_CLASS
  2
AcDbHatchViewContextData
  3
ObjectDBX Classes
 90
     1153
 91
        0
280
     0
281
     0
  0
CLASS
  1
ACDB_HATCHSCALECONTEXTDATA_CLASS
  2
AcDbHatchScaleContextData
  3
ObjectDBX Classes
 90
     1153
 91
        0
280
     0
281
     0
  0
CLASS
  1
ACAD_EVALUATION_GRAPH
  2
AcDbEvalGraph
  3
ObjectDBX Classes
 90
     1153
 91
        0
280
     0
281
     0
  0
CLASS
  1
ACAECUSTOBJ
  2
AcAeEditorObj
  3
AcAeEditorObj
 90
     1024
 91
        0
280
     0
281
     0
  0
CLASS
  1
PLOTSETTINGS
  2
AcDbPlotSettings
  3
ObjectDBX Classes
 90
        0
 91
        2
280
     0
281
     0
  0
ENDSEC
  0
SECTION
  2
TABLES
  0
TABLE
  2
VPORT
  5
8
330
0
100
AcDbSymbolTable
 70
     1
  0
VPORT
  5
EA
330
8
100
AcDbSymbolTableRecord
100
AcDbViewportTableRecord
  2
*Active
 70
     0
 10
0.0
 20
0.0
 11
1.0
 21
1.0
 12
2025.000009429644
 22
1701.171271753869
 13
0.0
 23
0.0
 14
10.0
 24
10.0
 15
10.0
 25
10.0
 16
0.0
 26
0.0
 36
1.0
 17
0.0
 27
0.0
 37
0.0
 40
2979.77237669446
 41
1.581724581724581
 42
50.0
 43
0.0
 44
0.0
 50
0.0
 51
0.0
 71
     0
 72
  1000
 73
     1
 74
     3
 75
     0
 76
     0
 77
     0
 78
     0
281
     0
 65
     1
110
0.0
120
0.0
130
0.0
111
1.0
121
0.0
131
0.0
112
0.0
122
1.0
132
0.0
 79
     0
146
0.0
348
F5
 60
     3
 61
     5
292
     1
282
     1
141
0.0
142
0.0
 63
   250
421
  3355443
1001
ACAD_NAV_VCDISPLAY
1070
     3
  0
ENDTAB
  0
TABLE
  2
LTYPE
  5
5
330
0
100
AcDbSymbolTable
 70
     4
  0
LTYPE
  5
14
330
5
100
AcDbSymbolTableRecord
100
AcDbLinetypeTableRecord
  2
ByBlock
 70
     0
  3

 72
    65
 73
     0
 40
0.0
  0
LTYPE
  5
15
330
5
100
AcDbSymbolTableRecord
100
AcDbLinetypeTableRecord
  2
ByLayer
 70
     0
  3

 72
    65
 73
     0
 40
0.0
  0
LTYPE
  5
16
330
5
100
AcDbSymbolTableRecord
100
AcDbLinetypeTableRecord
  2
Continuous
 70
     0
  3
Solid line
 72
    65
 73
     0
 40
0.0
  0
LTYPE
  5
2C4
330
5
100
AcDbSymbolTableRecord
100
AcDbLinetypeTableRecord
  2
ACAD_ISO10W100
 70
     0
  3
ISO dash dot __ . __ . __ . __ . __ . __ . __ .
 72
    65
 73
     4
 40
18.0
 49
12.0
 74
     0
 49
-3.0
 74
     0
 49
0.0
 74
     0
 49
-3.0
 74
     0
  0
LTYPE
  5
456
330
5
100
AcDbSymbolTableRecord
100
AcDbLinetypeTableRecord
  2
ACAD_ISO02W100
 70
     0
  3
ISO dash __ __ __ __ __ __ __ __ __ __ __ __ __
 72
    65
 73
     2
 40
15.0
 49
12.0
 74
     0
 49
-3.0
 74
     0
  0
LTYPE
  5
457
330
5
100
AcDbSymbolTableRecord
100
AcDbLinetypeTableRecord
  2
ACAD_ISO03W100
 70
     0
  3
ISO dash space __    __    __    __    __    __
 72
    65
 73
     2
 40
30.0
 49
12.0
 74
     0
 49
-18.0
 74
     0
  0
ENDTAB
  0
TABLE
  2
LAYER
  5
2
102
{ACAD_XDICTIONARY
360
1FF
102
}
330
0
100
AcDbSymbolTable
 70
    13
  0
LAYER
  5
10
102
{ACAD_XDICTIONARY
360
13C
102
}
330
2
100
AcDbSymbolTableRecord
100
AcDbLayerTableRecord
  2
0
 70
     0
 62
     7
  6
Continuous
370
    -3
390
F
347
EE
348
0
  0
LAYER
  5
458
330
2
100
AcDbSymbolTableRecord
100
AcDbLayerTableRecord
  2
Defpoints
 70
     0
 62
     7
  6
Continuous
290
     0
370
    -3
390
F
347
EE
348
0
  0
LAYER
  5
459
102
{ACAD_XDICTIONARY
360
45A
102
}
330
2
100
AcDbSymbolTableRecord
100
AcDbLayerTableRecord
  2
躯体
 70
     0
 62
     2
  6
Continuous
370
    -3
390
F
347
EE
348
0
  0
LAYER
  5
45D
102
{ACAD_XDICTIONARY
360
45E
102
}
330
2
100
AcDbSymbolTableRecord
100
AcDbLayerTableRecord
  2
文字
 70
     0
 62
     8
  6
Continuous
370
    -3
390
F
347
EE
348
0
  0
LAYER
  5
471
102
{ACAD_XDICTIONARY
360
472
102
}
330
2
100
AcDbSymbolTableRecord
100
AcDbLayerTableRecord
  2
ﾏﾙｴｽｱﾙﾐﾊﾞｰ
 70
     0
 62
    51
  6
Continuous
370
    -3
390
F
347
EE
348
0
1001
AcAecLayerStandard
1000

1000

  0
LAYER
  5
1854
102
{ACAD_XDICTIONARY
360
1855
102
}
330
2
100
AcDbSymbolTableRecord
100
AcDbLayerTableRecord
  2
断熱層
 70
     0
 62
     5
  6
Continuous
370
    -3
390
F
347
EE
348
0
1001
AcAecLayerStandard
1000

1000

  0
LAYER
  5
31BA
330
2
100
AcDbSymbolTableRecord
100
AcDbLayerTableRecord
  2
ﾏﾙｴｽｼﾝｸﾞﾙ
 70
     0
 62
     3
  6
Continuous
370
    -3
390
F
347
EE
348
0
1001
AcAecLayerStandard
1000

1000

  0
LAYER
  5
31BB
330
2
100
AcDbSymbolTableRecord
100
AcDbLayerTableRecord
  2
ｶｽﾀﾑﾍﾞｰｽ
 70
     0
 62
     5
  6
Continuous
370
    -3
390
F
347
EE
348
0
1001
AcAecLayerStandard
1000

1000

  0
LAYER
  5
31BC
330
2
100
AcDbSymbolTableRecord
100
AcDbLayerTableRecord
  2
枠
 70
     0
 62
     7
  6
Continuous
370
    -3
390
F
347
EE
348
0
1001
AcAecLayerStandard
1000

1000

  0
LAYER
  5
31BE
330
2
100
AcDbSymbolTableRecord
100
AcDbLayerTableRecord
  2
ﾊｯﾁ
 70
     0
 62
     8
  6
Continuous
370
    -3
390
F
347
EE
348
0
1001
AcAecLayerStandard
1000

1000

  0
LAYER
  5
512A
330
2
100
AcDbSymbolTableRecord
100
AcDbLayerTableRecord
  2
ｶｽﾀﾑｺｰﾁﾝｸﾞS
 70
     0
 62
     4
  6
Continuous
370
    -3
390
F
347
EE
348
0
1001
AcAecLayerStandard
1000

1000

  0
LAYER
  5
512B
330
2
100
AcDbSymbolTableRecord
100
AcDbLayerTableRecord
  2
水切り金物
 70
     0
 62
     6
  6
Continuous
370
    -3
390
F
347
EE
348
0
1001
AcAecLayerStandard
1000

1000

  0
LAYER
  5
512C
330
2
100
AcDbSymbolTableRecord
100
AcDbLayerTableRecord
  2
端末押え金物
 70
     0
 62
     2
  6
Continuous
370
    -3
390
F
347
EE
348
0
1001
AcAecLayerStandard
1000

1000

  0
ENDTAB
  0
TABLE
  2
STYLE
  5
3
330
0
100
AcDbSymbolTable
 70
     9
  0
STYLE
  5
11
330
3
100
AcDbSymbolTableRecord
100
AcDbTextStyleTableRecord
  2
Standard
 70
     0
 40
0.0
 41
1.0
 50
0.0
 71
     0
 42
2.5
  3
arial.ttf
  4

1001
ACAD
1000
Arial
1071
       34
  0
STYLE
  5
132
330
3
100
AcDbSymbolTableRecord
100
AcDbTextStyleTableRecord
  2
Annotative
 70
     0
 40
0.0
 41
1.0
 50
0.0
 71
     0
 42
2.5
  3
arial.ttf
  4

1001
AcadAnnotative
1000
AnnotativeData
1002
{
1070
     1
1070
     1
1002
}
1001
ACAD
1000
Arial
1071
       34
  0
STYLE
  5
298
330
3
100
AcDbSymbolTableRecord
100
AcDbTextStyleTableRecord
  2
NS横文字
 70
     0
 40
0.0
 41
1.0
 50
0.0
 71
     0
 42
10.0
  3

  4

1001
AcadAnnotative
1000
AnnotativeData
1002
{
1070
     1
1070
     1
1002
}
1001
ACAD
1000
MS Gothic
1071
    32817
  0
STYLE
  5
29B
330
3
100
AcDbSymbolTableRecord
100
AcDbTextStyleTableRecord
  2
NS縦文字
 70
     0
 40
0.0
 41
1.0
 50
0.0
 71
     0
 42
2.5
  3

  4

1001
AcadAnnotative
1000
AnnotativeData
1002
{
1070
     1
1070
     1
1002
}
1001
ACAD
1000
@MS Gothic
1071
    32817
  0
STYLE
  5
2C3
330
3
100
AcDbSymbolTableRecord
100
AcDbTextStyleTableRecord
  2

 70
     1
 40
0.0
 41
1.0
 50
0.0
 71
     0
 42
2.5
  3
ltypeshp.shx
  4

  0
STYLE
  5
479
330
3
100
AcDbSymbolTableRecord
100
AcDbTextStyleTableRecord
  2
ﾃﾞｨﾃｰﾙ
 70
     0
 40
0.0
 41
1.0
 50
0.0
 71
     0
 42
0.2
  3
txt.shx
  4
extfont.shx
  0
STYLE
  5
47A
330
3
100
AcDbSymbolTableRecord
100
AcDbTextStyleTableRecord
  2
ディテール
 70
     0
 40
20.0
 41
1.0
 50
0.0
 71
     0
 42
2.5
  3
txt.shx
  4
extfont2.shx
  0
STYLE
  5
31BF
330
3
100
AcDbSymbolTableRecord
100
AcDbTextStyleTableRecord
  2
ﾃﾞｨﾃｰﾙ(ｼﾝｸﾞﾙ)
 70
     0
 40
0.0
 41
1.0
 50
0.0
 71
     0
 42
10.0
  3
txt.shx
  4
extfont.shx
  0
STYLE
  5
31C0
330
3
100
AcDbSymbolTableRecord
100
AcDbTextStyleTableRecord
  2
スタイル2
 70
     0
 40
150.0
 41
1.0
 50
0.0
 71
     0
 42
150.0
  3
swissk.ttf
  4

1001
ACAD
1000
Swis721 Blk BT
1071
       34
  0
ENDTAB
  0
TABLE
  2
VIEW
  5
6
330
0
100
AcDbSymbolTable
 70
     0
  0
ENDTAB
  0
TABLE
  2
UCS
  5
7
330
0
100
AcDbSymbolTable
 70
     0
  0
ENDTAB
  0
TABLE
  2
APPID
  5
9
330
0
100
AcDbSymbolTable
 70
    18
  0
APPID
  5
12
330
9
100
AcDbSymbolTableRecord
100
AcDbRegAppTableRecord
  2
ACAD
 70
     0
  0
APPID
  5
9E
330
9
100
AcDbSymbolTableRecord
100
AcDbRegAppTableRecord
  2
ACAD_PSEXT
 70
     0
  0
APPID
  5
133
330
9
100
AcDbSymbolTableRecord
100
AcDbRegAppTableRecord
  2
AcadAnnoPO
 70
     0
  0
APPID
  5
134
330
9
100
AcDbSymbolTableRecord
100
AcDbRegAppTableRecord
  2
AcadAnnotative
 70
     0
  0
APPID
  5
135
330
9
100
AcDbSymbolTableRecord
100
AcDbRegAppTableRecord
  2
ACAD_DSTYLE_DIMJAG
 70
     0
  0
APPID
  5
136
330
9
100
AcDbSymbolTableRecord
100
AcDbRegAppTableRecord
  2
ACAD_DSTYLE_DIMTALN
 70
     0
  0
APPID
  5
165
330
9
100
AcDbSymbolTableRecord
100
AcDbRegAppTableRecord
  2
ACAD_MLEADERVER
 70
     0
  0
APPID
  5
217
330
9
100
AcDbSymbolTableRecord
100
AcDbRegAppTableRecord
  2
ACAD_NAV_VCDISPLAY
 70
     0
  0
APPID
  5
29E
330
9
100
AcDbSymbolTableRecord
100
AcDbRegAppTableRecord
  2
ACAD_DSTYLE_DIMBREAK
 70
     0
  0
APPID
  5
2C0
330
9
100
AcDbSymbolTableRecord
100
AcDbRegAppTableRecord
  2
AcAecLayerStandard
 70
     0
  0
APPID
  5
2C1
330
9
100
AcDbSymbolTableRecord
100
AcDbRegAppTableRecord
  2
AcCmTransparency
 70
     0
  0
APPID
  5
2C5
330
9
100
AcDbSymbolTableRecord
100
AcDbRegAppTableRecord
  2
ACAD_EXEMPT_FROM_CAD_STANDARDS
 70
     0
  0
APPID
  5
47E
330
9
100
AcDbSymbolTableRecord
100
AcDbRegAppTableRecord
  2
ACAD_DSTYLE_DIMJOGGED_JOGANGLE_SYMBOL
 70
     0
  0
APPID
  5
47F
330
9
100
AcDbSymbolTableRecord
100
AcDbRegAppTableRecord
  2
GradientColor1ACI
 70
     0
  0
APPID
  5
480
330
9
100
AcDbSymbolTableRecord
100
AcDbRegAppTableRecord
  2
GradientColor2ACI
 70
     0
  0
APPID
  5
DB3
330
9
100
AcDbSymbolTableRecord
100
AcDbRegAppTableRecord
  2
ACAD_DSTYLE_DIMRADIAL_EXTENSION
 70
     0
  0
APPID
  5
1D60
330
9
100
AcDbSymbolTableRecord
100
AcDbRegAppTableRecord
  2
AcLayerTools
 70
     0
  0
APPID
  5
2C5F
330
9
100
AcDbSymbolTableRecord
100
AcDbRegAppTableRecord
  2
ACAUTHENVIRON
 70
     0
  0
ENDTAB
  0
TABLE
  2
DIMSTYLE
  5
A
330
0
100
AcDbSymbolTable
 70
     8
100
AcDbDimStyleTable
 71
     4
340
2A5
340
47C
340
27
340
137
  0
DIMSTYLE
105
1B0
330
A
100
AcDbSymbolTableRecord
100
AcDbDimStyleTableRecord
  2
Standard
 70
     0
340
11
  0
DIMSTYLE
105
137
330
A
100
AcDbSymbolTableRecord
100
AcDbDimStyleTableRecord
  2
Annotative
 70
     0
 40
0.0
 41
2.5
 42
0.625
 43
3.75
 44
1.25
 73
     0
 74
     0
 77
     1
 78
     8
140
2.5
141
2.5
143
0.03937007874016
147
0.625
171
     3
172
     1
271
     2
272
     2
274
     3
278
    44
283
     0
284
     8
340
11
1001
AcadAnnotative
1000
AnnotativeData
1002
{
1070
     1
1070
     1
1002
}
1001
ACAD_DSTYLE_DIMJAG
1070
   388
1040
1.5
1001
ACAD_DSTYLE_DIMTALN
1070
   392
1070
     0
  0
DIMSTYLE
105
27
330
A
100
AcDbSymbolTableRecord
100
AcDbDimStyleTableRecord
  2
ISO-25
 70
     0
 41
2.5
 42
0.625
 43
3.75
 44
1.25
 73
     0
 74
     0
 77
     1
 78
     8
140
2.5
141
2.5
143
0.03937007874016
147
0.625
171
     3
172
     1
271
     2
272
     2
274
     3
278
    44
283
     0
284
     8
340
11
  0
DIMSTYLE
105
2A5
330
A
100
AcDbSymbolTableRecord
100
AcDbDimStyleTableRecord
  2
NS寸法
 70
     0
 41
10.0
 42
2.0
 43
3.75
 44
1.25
 73
     0
 74
     0
 77
     1
 78
     8
140
20.0
141
2.5
143
0.03937007874016
147
1.0
171
     3
172
     1
271
     2
272
     2
274
     3
278
    44
283
     0
284
     8
340
11
342
29F
1001
ACAD_DSTYLE_DIMBREAK
1070
   391
1040
3.75
1001
AcadAnnotative
1000
AnnotativeData
1002
{
1070
     1
1070
     1
1002
}
1001
ACAD_DSTYLE_DIMJAG
1070
   388
1040
1.5
1001
ACAD_DSTYLE_DIMTALN
1070
   392
1070
     0
  0
DIMSTYLE
105
47B
330
A
100
AcDbSymbolTableRecord
100
AcDbDimStyleTableRecord
  2
ﾃﾞｨﾃｰﾙ
 70
     0
 41
5.0
 42
20.0
 43
20.0
 44
0.0
 49
0.18
 50
90.0
 73
     0
 74
     0
 77
     1
 78
     8
 79
     2
140
20.0
141
0.0
147
5.0
172
     1
174
     1
279
     2
340
479
341
3AA
1001
ACAD_DSTYLE_DIMJAG
1070
   388
1040
1.5
1001
ACAD_DSTYLE_DIMTALN
1070
   392
1070
     0
1001
ACAD_DSTYLE_DIMJOGGED_JOGANGLE_SYMBOL
1070
   384
1040
1.570796326794896
  0
DIMSTYLE
105
47C
330
A
100
AcDbSymbolTableRecord
100
AcDbDimStyleTableRecord
  2
ﾃﾞｨﾃｰﾙ（角）
 70
     0
 41
2.0
 42
30.0
 43
20.0
 44
0.0
 49
0.18
 50
90.0
 73
     0
 74
     0
 77
     1
 78
     8
 79
     2
140
10.0
141
0.0
147
1.0
172
     1
174
     1
279
     2
340
11
342
3AA
1001
ACAD_DSTYLE_DIMJOGGED_JOGANGLE_SYMBOL
1070
   384
1040
1.570796326794896
  0
DIMSTYLE
105
47D
330
A
100
AcDbSymbolTableRecord
100
AcDbDimStyleTableRecord
  2
ﾃﾞｨﾃｰﾙ2
 70
     0
 41
5.0
 42
10.0
 43
10.0
 44
0.0
 49
0.18
 50
90.0
 73
     0
 74
     0
 77
     1
 78
     8
 79
     2
140
20.0
141
0.0
147
5.0
172
     1
174
     1
279
     2
340
479
341
453
1001
ACAD_DSTYLE_DIMBREAK
1070
   391
1040
0.125
1001
ACAD_DSTYLE_DIMJAG
1070
   388
1040
1.5
1001
ACAD_DSTYLE_DIMTALN
1070
   392
1070
     0
1001
ACAD_DSTYLE_DIMJOGGED_JOGANGLE_SYMBOL
1070
   384
1040
1.570796326794896
  0
DIMSTYLE
105
31C1
330
A
100
AcDbSymbolTableRecord
100
AcDbDimStyleTableRecord
  2
ﾃﾞｨﾃｰﾙ（ｼﾝｸﾞﾙ）
 70
     0
 40
0.5
 41
5.0
 42
20.0
 43
20.0
 44
0.0
 49
0.18
 50
90.0
 73
     0
 74
     0
 77
     1
 78
     8
 79
     2
140
20.0
141
0.0
147
5.0
172
     1
174
     1
279
     2
340
31BF
1001
ACAD_DSTYLE_DIMJOGGED_JOGANGLE_SYMBOL
1070
   384
1040
1.570796326794896
  0
ENDTAB
  0
TABLE
  2
BLOCK_RECORD
  5
1
330
0
100
AcDbSymbolTable
 70
     4
  0
BLOCK_RECORD
  5
1F
102
{ACAD_XDICTIONARY
360
1CE
102
}
330
1
100
AcDbSymbolTableRecord
100
AcDbBlockTableRecord
  2
*Model_Space
340
22
 70
     0
280
     1
281
     0
  0
BLOCK_RECORD
  5
349F
330
1
100
AcDbSymbolTableRecord
100
AcDbBlockTableRecord
  2
*Paper_Space
340
34A0
 70
     0
280
     1
281
     0
  0
BLOCK_RECORD
  5
29F
330
1
100
AcDbSymbolTableRecord
100
AcDbBlockTableRecord
  2
_Open
340
0
 70
     0
280
     1
281
     0
  0
BLOCK_RECORD
  5
3AA
330
1
100
AcDbSymbolTableRecord
100
AcDbBlockTableRecord
  2
_Dot
340
0
 70
     0
280
     1
281
     0
  0
BLOCK_RECORD
  5
453
330
1
100
AcDbSymbolTableRecord
100
AcDbBlockTableRecord
  2
_None
340
0
 70
     0
280
     1
281
     0
  0
BLOCK_RECORD
  5
3FD4
330
1
100
AcDbSymbolTableRecord
100
AcDbBlockTableRecord
  2
*Paper_Space3
340
3FD5
 70
     0
280
     1
281
     0
  0
ENDTAB
  0
ENDSEC
  0
SECTION
  2
BLOCKS
  0
BLOCK
  5
20
330
1F
100
AcDbEntity
  8
0
100
AcDbBlockBegin
  2
*Model_Space
 70
     0
 10
0.0
 20
0.0
 30
0.0
  3
*Model_Space
  1

  0
ENDBLK
  5
21
330
1F
100
AcDbEntity
  8
0
100
AcDbBlockEnd
  0
BLOCK
  5
34A1
330
349F
100
AcDbEntity
 67
     1
  8
0
100
AcDbBlockBegin
  2
*Paper_Space
 70
     0
 10
0.0
 20
0.0
 30
0.0
  3
*Paper_Space
  1

  0
ENDBLK
  5
34A2
330
349F
100
AcDbEntity
 67
     1
  8
0
100
AcDbBlockEnd
  0
BLOCK
  5
2A3
330
29F
100
AcDbEntity
  8
0
100
AcDbBlockBegin
  2
_Open
 70
     0
 10
0.0
 20
0.0
 30
0.0
  3
_Open
  1

  0
LINE
  5
2A0
330
29F
100
AcDbEntity
  8
0
  6
ByBlock
 62
     0
370
    -2
100
AcDbLine
 10
-1.0
 20
0.1666666666666666
 30
0.0
 11
0.0
 21
0.0
 31
0.0
  0
LINE
  5
2A1
330
29F
100
AcDbEntity
  8
0
  6
ByBlock
 62
     0
370
    -2
100
AcDbLine
 10
-1.0
 20
-0.1666666666666666
 30
0.0
 11
0.0
 21
0.0
 31
0.0
  0
LINE
  5
2A2
330
29F
100
AcDbEntity
  8
0
  6
ByBlock
 62
     0
370
    -2
100
AcDbLine
 10
0.0
 20
0.0
 30
0.0
 11
-1.0
 21
0.0
 31
0.0
  0
ENDBLK
  5
2A4
330
29F
100
AcDbEntity
  8
0
100
AcDbBlockEnd
  0
BLOCK
  5
3AB
330
3AA
100
AcDbEntity
  8
0
100
AcDbBlockBegin
  2
_Dot
 70
     0
 10
0.0
 20
0.0
 30
0.0
  3
_Dot
  1

  0
LWPOLYLINE
  5
3AC
330
3AA
100
AcDbEntity
  8
0
  6
ByBlock
 62
     0
100
AcDbPolyline
 90
        2
 70
     1
 43
0.5
 10
-0.25
 20
0.0
 42
1.0
 10
0.25
 20
0.0
 42
1.0
  0
LINE
  5
3AD
330
3AA
100
AcDbEntity
  8
0
  6
ByBlock
 62
     0
370
    -2
100
AcDbLine
 10
-0.5
 20
0.0
 30
0.0
 11
-1.0
 21
0.0
 31
0.0
  0
ENDBLK
  5
3AE
330
3AA
100
AcDbEntity
  8
0
100
AcDbBlockEnd
  0
BLOCK
  5
454
330
453
100
AcDbEntity
  8
0
 62
     1
100
AcDbBlockBegin
  2
_None
 70
     0
 10
0.0
 20
0.0
 30
0.0
  3
_None
  1

  0
ENDBLK
  5
455
330
453
100
AcDbEntity
  8
0
 62
     1
100
AcDbBlockEnd
  0
BLOCK
  5
3FD6
330
3FD4
100
AcDbEntity
 67
     1
  8
0
100
AcDbBlockBegin
  2
*Paper_Space3
 70
     0
 10
0.0
 20
0.0
 30
0.0
  3
*Paper_Space3
  1

  0
VIEWPORT
  5
3FE2
102
{ACAD_XDICTIONARY
360
3FE3
102
}
330
3FD4
100
AcDbEntity
 67
     1
  8
0
100
AcDbViewport
 10
105.0028812669753
 20
148.500000691507
 30
0.0
 40
828.0170675023994
 41
299.597156044392
 68
     0
 69
     0
 12
105.0028812669753
 22
148.500000691507
 13
0.0
 23
0.0
 14
10.0
 24
10.0
 15
10.0
 25
10.0
 16
0.0
 26
0.0
 36
1.0
 17
0.0
 27
0.0
 37
0.0
 42
50.0
 43
0.0
 44
0.0
 45
299.597156044392
 50
0.0
 51
0.0
 72
  1000
 90
   557088
  1

281
     0
 71
     1
 74
     0
110
0.0
120
0.0
130
0.0
111
1.0
121
0.0
131
0.0
112
0.0
122
1.0
132
0.0
 79
     0
146
0.0
170
     0
 61
     5
348
F5
292
     1
282
     1
141
0.0
142
0.0
 63
   250
421
  3355443
  0
VIEWPORT
  5
4023
102
{ACAD_XDICTIONARY
360
4024
102
}
330
3FD4
100
AcDbEntity
 67
     1
  8
0
100
AcDbViewport
 10
105.0
 20
148.5
 30
0.0
 40
210.0
 41
297.0
 68
     0
 69
     0
 12
375.5330085889872
 22
79.03553390593241
 13
0.0
 23
0.0
 14
10.0
 24
10.0
 15
10.0
 25
10.0
 16
0.0
 26
0.0
 36
1.0
 17
0.0
 27
0.0
 37
0.0
 42
50.0
 43
0.0
 44
0.0
 45
2.837157155526824
 50
0.0
 51
0.0
 72
  1000
 90
   819296
  1

281
     0
 71
     1
 74
     0
110
0.0
120
0.0
130
0.0
111
1.0
121
0.0
131
0.0
112
0.0
122
1.0
132
0.0
 79
     0
146
0.0
170
     0
 61
     5
348
F5
292
     1
282
     1
141
0.0
142
0.0
 63
   250
421
  3355443
  0
ENDBLK
  5
3FD7
330
3FD4
100
AcDbEntity
 67
     1
  8
0
100
AcDbBlockEnd
  0
ENDSEC
  0
SECTION
  2
ENTITIES
  0
HATCH
  5
1A98
330
1F
100
AcDbEntity
  8
断熱層
100
AcDbHatch
 10
0.0
 20
0.0
 30
0.0
210
0.0
220
0.0
230
1.0
  2
ANSI37
 70
     0
 71
     0
 91
        1
 92
        1
 93
        2
 72
     1
 10
376.5231293186581
 20
78.04541317626072
 11
374.5428878593162
 21
80.02565463560413
 72
     2
 10
376.9974746830557
 20
80.49999999999995
 40
2.499999999999943
 50
190.9375030835813
 51
259.0624969163791
 73
     1
 97
        0
 75
     0
 76
     1
 52
0.0
 41
5.0
 77
     0
 78
     2
 53
45.0
 43
20739.56311116091
 44
-703.0713436109799
 45
-11.22532015133644
 46
11.22532015133644
 79
     0
 53
135.0
 43
20739.56311116091
 44
-703.0713436109799
 45
-11.22532015133644
 46
-11.22532015133644
 79
     0
 98
        1
 10
794.6319006576632
 20
92.77927700190048
1001
ACAD
1010
0.0
1020
0.0
1030
0.0
  0
LINE
  5
67ED
330
1F
100
AcDbEntity
  8
枠
  6
ByBlock
370
     5
100
AcDbLine
 10
3561.497292069689
 20
140.6947890549782
 30
0.0
 11
3561.497292069689
 21
0.0
 31
0.0
  0
LINE
  5
67EE
330
1F
100
AcDbEntity
  8
枠
  6
ByBlock
370
     5
100
AcDbLine
 10
3112.034739633527
 20
140.6947890549782
 30
0.0
 11
4050.0
 21
140.6947890549782
 31
0.0
  0
LINE
  5
67EF
330
1F
100
AcDbEntity
  8
枠
  6
ByBlock
370
     5
100
AcDbLine
 10
4050.0
 20
93.79652603667636
 30
0.0
 11
3561.497292069762
 21
93.79652603667636
 31
0.0
  0
LINE
  5
67F0
330
1F
100
AcDbEntity
  8
枠
  6
ByBlock
370
     5
100
AcDbLine
 10
3561.497292069762
 20
46.89826301833818
 30
0.0
 11
4050.0
 21
46.8982630183018
 31
0.0
  0
MTEXT
  5
67F1
102
{ACAD_XDICTIONARY
360
67F2
102
}
330
1F
100
AcDbEntity
  8
枠
  6
ByBlock
370
     5
100
AcDbMText
 10
3134.902368474581
 20
91.94760284568474
 30
0.0
 40
38.8888888875
 41
577.6161620626528
 46
0.0
 71
     1
 72
     5
  1
{\fMS Gothic|b0|i0|c128|p49;日新工業株式会社}
  7
NS横文字
 73
     1
 44
1.0
1001
ACAD
1000
ACAD_MTEXT_DEFINED_HEIGHT_BEGIN
1070
    46
1040
0.0
1000
ACAD_MTEXT_DEFINED_HEIGHT_END
1001
AcadAnnotative
1000
AnnotativeData
1002
{
1070
     1
1070
     1
1002
}
  0
LINE
  5
67F6
330
1F
100
AcDbEntity
  8
枠
  6
ByBlock
370
     5
100
AcDbLine
 10
3112.034739633527
 20
140.6947890549782
 30
0.0
 11
0.0
 21
140.6947890549782
 31
0.0
  0
LINE
  5
67F7
330
1F
100
AcDbEntity
  8
枠
  6
ByBlock
370
     5
100
AcDbLine
 10
3112.034739633527
 20
140.6947890549782
 30
0.0
 11
3112.034739633527
 21
0.0
 31
0.0
  0
LINE
  5
67F8
330
1F
100
AcDbEntity
  8
枠
  6
ByBlock
370
     5
100
AcDbLine
 10
2662.57218719722
 20
0.0
 30
0.0
 11
0.0
 21
0.0
 31
0.0
  0
LINE
  5
67F9
330
1F
100
AcDbEntity
  8
枠
  6
ByBlock
370
     5
100
AcDbLine
 10
3112.034739633455
 20
35.17370046170981
 30
0.0
 11
0.0
 21
35.17370046170981
 31
0.0
  0
LINE
  5
67FA
330
1F
100
AcDbEntity
  8
枠
  6
ByBlock
370
     5
100
AcDbLine
 10
3112.034739633455
 20
70.34740092341962
 30
0.0
 11
0.0
 21
70.34740092341962
 31
0.0
  0
LINE
  5
67FB
330
1F
100
AcDbEntity
  8
枠
  6
ByBlock
370
     5
100
AcDbLine
 10
3112.034739633455
 20
105.521101385093
 30
0.0
 11
0.0
 21
105.5211013851294
 31
0.0
  0
LWPOLYLINE
  5
67FC
330
1F
100
AcDbEntity
  8
枠
  6
Continuous
370
     5
100
AcDbPolyline
 90
        4
 70
     1
 43
0.0
 10
0.000000000003638
 20
0.0
 10
4050.000000000003
 20
0.0
 10
4050.000000000003
 20
2820.0
 10
0.000000000003638
 20
2820.0
  0
LINE
  5
67FD
330
1F
100
AcDbEntity
  8
枠
  6
Continuous
370
     5
100
AcDbLine
 10
1350.0
 20
140.6947890549782
 30
0.0
 11
1350.0
 21
2820.0
 31
0.0
  0
LINE
  5
67FE
330
1F
100
AcDbEntity
  8
枠
  6
Continuous
370
     5
100
AcDbLine
 10
2699.999999999927
 20
140.6947890549782
 30
0.0
 11
2700.0
 21
2820.0
 31
0.0
  0
LINE
  5
67FF
330
1F
100
AcDbEntity
  8
枠
  6
Continuous
370
     5
100
AcDbLine
 10
4050.0
 20
1930.0
 30
0.0
 11
0.0
 21
1930.0
 31
0.0
  0
LINE
  5
6800
330
1F
100
AcDbEntity
  8
枠
  6
Continuous
370
     5
100
AcDbLine
 10
4050.0
 20
1040.0
 30
0.0
 11
0.0
 21
1040.0
 31
0.0
  0
LINE
  5
6801
330
1F
100
AcDbEntity
  8
枠
  6
ByBlock
370
     5
100
AcDbLine
 10
4050.0
 20
2773.101736981698
 30
0.0
 11
0.0000000000727596
 21
2773.101736981698
 31
0.0
  0
LINE
  5
6802
330
1F
100
AcDbEntity
  8
枠
  6
ByBlock
370
     5
100
AcDbLine
 10
4050.0
 20
1883.101736981698
 30
0.0
 11
0.0000000000727596
 21
1883.101736981698
 31
0.0
  0
LINE
  5
6803
330
1F
100
AcDbEntity
  8
枠
  6
ByBlock
370
     5
100
AcDbLine
 10
4050.0
 20
993.1017369816983
 30
0.0
 11
0.0000000000727596
 21
993.1017369816983
 31
0.0
  0
MTEXT
  5
6804
102
{ACAD_XDICTIONARY
360
6805
102
}
330
1F
100
AcDbEntity
  8
枠
  6
ByBlock
370
     5
100
AcDbMText
 10
1190.909576422422
 20
2808.866260770374
 30
0.0
 40
19.44444444375
 41
159.0904235775765
 46
0.0
 71
     1
 72
     5
  1
{\fMS Gothic|b0|i0|c128|p49;２Ｅ－２０１}
  7
NS横文字
 73
     1
 44
1.0
1001
ACAD
1000
ACAD_MTEXT_DEFINED_HEIGHT_BEGIN
1070
    46
1040
0.0
1000
ACAD_MTEXT_DEFINED_HEIGHT_END
1001
AcadAnnotative
1000
AnnotativeData
1002
{
1070
     1
1070
     1
1002
}
  0
LINE
  5
6809
330
1F
100
AcDbEntity
  8
ﾏﾙｴｽｱﾙﾐﾊﾞｰ
  6
Continuous
370
     5
100
AcDbLine
 10
882.9154161567721
 20
2475.321001111968
 30
0.0
 11
885.4154161567722
 21
2474.639331111968
 31
0.0
  0
LINE
  5
680A
330
1F
100
AcDbEntity
  8
ﾏﾙｴｽｱﾙﾐﾊﾞｰ
  6
Continuous
370
     5
100
AcDbLine
 10
882.9154161567721
 20
2467.320991111968
 30
0.0
 11
885.4154161567722
 21
2468.002651111968
 31
0.0
  0
LINE
  5
680B
330
1F
100
AcDbEntity
  8
ﾏﾙｴｽｱﾙﾐﾊﾞｰ
  6
Continuous
370
     5
100
AcDbLine
 10
879.8608861567709
 20
2463.189381111968
 30
0.0
 11
888.4154161567721
 21
2467.320991111968
 31
0.0
  0
LINE
  5
680C
330
1F
100
AcDbEntity
  8
ﾏﾙｴｽｱﾙﾐﾊﾞｰ
  6
Continuous
370
     5
100
AcDbLine
 10
879.8608861567709
 20
2463.189381111968
 30
0.0
 11
888.4154161567721
 21
2468.446001111968
 31
0.0
  0
LINE
  5
680D
330
1F
100
AcDbEntity
  8
ﾏﾙｴｽｱﾙﾐﾊﾞｰ
  6
Continuous
370
     5
100
AcDbLine
 10
906.9154161567722
 20
2471.821001111969
 30
0.0
 11
876.9154161567721
 21
2471.821001111969
 31
0.0
  0
LINE
  5
680E
330
1F
100
AcDbEntity
  8
ﾏﾙｴｽｱﾙﾐﾊﾞｰ
  6
Continuous
370
     5
100
AcDbLine
 10
906.9154161567722
 20
2470.82099111197
 30
0.0
 11
876.9154161567721
 21
2470.82099111197
 31
0.0
  0
LINE
  5
680F
330
1F
100
AcDbEntity
  8
ﾏﾙｴｽｱﾙﾐﾊﾞｰ
  6
Continuous
370
     5
100
AcDbLine
 10
879.8608861567709
 20
2479.452571111969
 30
0.0
 11
888.4154161567721
 21
2474.195991111967
 31
0.0
  0
LINE
  5
6810
330
1F
100
AcDbEntity
  8
ﾏﾙｴｽｱﾙﾐﾊﾞｰ
  6
Continuous
370
     5
100
AcDbLine
 10
879.8608861567709
 20
2479.452571111969
 30
0.0
 11
888.4154161567721
 21
2475.321001111968
 31
0.0
  0
LINE
  5
6811
330
1F
100
AcDbEntity
  8
ﾏﾙｴｽｱﾙﾐﾊﾞｰ
  6
Continuous
370
     5
100
AcDbLine
 10
886.3689101960035
 20
2426.634378810657
 30
0.0
 11
884.5965401960038
 21
2426.634378810657
 31
0.0
  0
LINE
  5
6812
330
1F
100
AcDbEntity
  8
ﾏﾙｴｽｱﾙﾐﾊﾞｰ
  6
Continuous
370
     5
100
AcDbLine
 10
886.3689101960035
 20
2429.584378810656
 30
0.0
 11
884.5965401960038
 21
2429.584378810656
 31
0.0
  0
ARC
  5
6813
330
1F
100
AcDbEntity
  8
ﾏﾙｴｽｱﾙﾐﾊﾞｰ
  6
Continuous
370
     5
100
AcDbCircle
 10
882.0965401960037
 20
2429.631568810656
 30
0.0
 40
2.500445299999999
100
AcDbArc
 50
358.9185699999913
 51
61.17663999994969
  0
ARC
  5
6814
330
1F
100
AcDbEntity
  8
ﾏﾙｴｽｱﾙﾐﾊﾞｰ
  6
Continuous
370
     5
100
AcDbCircle
 10
882.0965401960037
 20
2426.587188810656
 30
0.0
 40
2.500445299999999
100
AcDbArc
 50
298.8233800000049
 51
1.081459999988432
  0
LINE
  5
6815
330
1F
100
AcDbEntity
  8
ﾏﾙｴｽｱﾙﾐﾊﾞｰ
  6
Continuous
370
     5
100
AcDbLine
 10
897.4154301960043
 20
2428.584378810656
 30
0.0
 11
873.4154301960042
 21
2428.584378810656
 31
0.0
  0
LINE
  5
6816
330
1F
100
AcDbEntity
  8
ﾏﾙｴｽｱﾙﾐﾊﾞｰ
  6
Continuous
370
     5
100
AcDbLine
 10
897.4154301960043
 20
2427.634368810656
 30
0.0
 11
873.4154301960042
 21
2427.634368810656
 31
0.0
  0
LINE
  5
6817
330
1F
100
AcDbEntity
  8
ﾏﾙｴｽｱﾙﾐﾊﾞｰ
  6
Continuous
370
     5
100
AcDbLine
 10
885.4154161567722
 20
2468.002651111968
 30
0.0
 11
885.4154161567722
 21
2469.570981111969
 31
0.0
  0
LINE
  5
6818
330
1F
100
AcDbEntity
  8
ﾏﾙｴｽｱﾙﾐﾊﾞｰ
  6
Continuous
370
     5
100
AcDbLine
 10
885.4154161567722
 20
2474.639331111968
 30
0.0
 11
885.4154161567722
 21
2473.070981111968
 31
0.0
  0
LINE
  5
6819
330
1F
100
AcDbEntity
  8
ﾏﾙｴｽｱﾙﾐﾊﾞｰ
  6
Continuous
370
     5
100
AcDbLine
 10
888.4154161567721
 20
2475.321001111968
 30
0.0
 11
890.9154161567721
 21
2474.639331111968
 31
0.0
  0
LINE
  5
681A
330
1F
100
AcDbEntity
  8
ﾏﾙｴｽｱﾙﾐﾊﾞｰ
  6
Continuous
370
     5
100
AcDbLine
 10
892.9154261567719
 20
2475.321001111968
 30
0.0
 11
895.4154261567719
 21
2474.639331111968
 31
0.0
  0
LINE
  5
681B
330
1F
100
AcDbEntity
  8
ﾏﾙｴｽｱﾙﾐﾊﾞｰ
  6
Continuous
370
     5
100
AcDbLine
 10
902.4154161567722
 20
2475.250321111968
 30
0.0
 11
904.9154161567722
 21
2474.568631111968
 31
0.0
  0
LINE
  5
681C
330
1F
100
AcDbEntity
  8
ﾏﾙｴｽｱﾙﾐﾊﾞｰ
  6
Continuous
370
     5
100
AcDbLine
 10
897.4154161567721
 20
2475.321001111968
 30
0.0
 11
899.9154161567721
 21
2474.639331111968
 31
0.0
  0
LINE
  5
681D
330
1F
100
AcDbEntity
  8
ﾏﾙｴｽｱﾙﾐﾊﾞｰ
  6
Continuous
370
     5
100
AcDbLine
 10
888.4154161567721
 20
2467.320991111968
 30
0.0
 11
890.9154161567721
 21
2468.002651111968
 31
0.0
  0
LINE
  5
681E
330
1F
100
AcDbEntity
  8
ﾏﾙｴｽｱﾙﾐﾊﾞｰ
  6
Continuous
370
     5
100
AcDbLine
 10
890.9154161567721
 20
2469.570981111969
 30
0.0
 11
892.9154261567719
 21
2469.570981111969
 31
0.0
  0
LINE
  5
681F
330
1F
100
AcDbEntity
  8
ﾏﾙｴｽｱﾙﾐﾊﾞｰ
  6
Continuous
370
     5
100
AcDbLine
 10
892.9154261567719
 20
2467.320991111968
 30
0.0
 11
895.4154261567719
 21
2468.002651111968
 31
0.0
  0
LINE
  5
6820
330
1F
100
AcDbEntity
  8
ﾏﾙｴｽｱﾙﾐﾊﾞｰ
  6
Continuous
370
     5
100
AcDbLine
 10
892.9154261567719
 20
2467.320991111968
 30
0.0
 11
892.9154261567719
 21
2469.570981111969
 31
0.0
  0
LINE
  5
6821
330
1F
100
AcDbEntity
  8
ﾏﾙｴｽｱﾙﾐﾊﾞｰ
  6
Continuous
370
     5
100
AcDbLine
 10
890.9154161567721
 20
2468.002651111968
 30
0.0
 11
890.9154161567721
 21
2469.570981111969
 31
0.0
  0
LINE
  5
6822
330
1F
100
AcDbEntity
  8
ﾏﾙｴｽｱﾙﾐﾊﾞｰ
  6
Continuous
370
     5
100
AcDbLine
 10
895.4154261567719
 20
2468.002651111968
 30
0.0
 11
895.4154261567719
 21
2469.570981111969
 31
0.0
  0
LINE
  5
6823
330
1F
100
AcDbEntity
  8
ﾏﾙｴｽｱﾙﾐﾊﾞｰ
  6
Continuous
370
     5
100
AcDbLine
 10
897.4154161567721
 20
2467.320991111968
 30
0.0
 11
897.4154161567721
 21
2469.570981111969
 31
0.0
  0
LINE
  5
6824
330
1F
100
AcDbEntity
  8
ﾏﾙｴｽｱﾙﾐﾊﾞｰ
  6
Continuous
370
     5
100
AcDbLine
 10
895.4154261567719
 20
2469.570981111969
 30
0.0
 11
897.4154161567721
 21
2469.570981111969
 31
0.0
  0
LINE
  5
6825
330
1F
100
AcDbEntity
  8
ﾏﾙｴｽｱﾙﾐﾊﾞｰ
  6
Continuous
370
     5
100
AcDbLine
 10
888.4154161567721
 20
2468.446001111968
 30
0.0
 11
888.4154161567721
 21
2469.570981111969
 31
0.0
  0
LINE
  5
6826
330
1F
100
AcDbEntity
  8
ﾏﾙｴｽｱﾙﾐﾊﾞｰ
  6
Continuous
370
     5
100
AcDbLine
 10
890.9154161567721
 20
2473.070981111968
 30
0.0
 11
892.9154261567719
 21
2473.070981111968
 31
0.0
  0
LINE
  5
6827
330
1F
100
AcDbEntity
  8
ﾏﾙｴｽｱﾙﾐﾊﾞｰ
  6
Continuous
370
     5
100
AcDbLine
 10
895.4154261567719
 20
2473.070981111968
 30
0.0
 11
897.4154161567721
 21
2473.070981111968
 31
0.0
  0
LINE
  5
6828
330
1F
100
AcDbEntity
  8
ﾏﾙｴｽｱﾙﾐﾊﾞｰ
  6
Continuous
370
     5
100
AcDbLine
 10
906.9154161567722
 20
2470.82099111197
 30
0.0
 11
906.9154161567722
 21
2470.002651111968
 31
0.0
  0
LINE
  5
6829
330
1F
100
AcDbEntity
  8
ﾏﾙｴｽｱﾙﾐﾊﾞｰ
  6
Continuous
370
     5
100
AcDbLine
 10
899.9154161567721
 20
2469.570981111969
 30
0.0
 11
902.4154161567722
 21
2469.570981111969
 31
0.0
  0
LINE
  5
682A
330
1F
100
AcDbEntity
  8
ﾏﾙｴｽｱﾙﾐﾊﾞｰ
  6
Continuous
370
     5
100
AcDbLine
 10
902.4154161567722
 20
2467.320991111968
 30
0.0
 11
904.9154161567722
 21
2468.002651111968
 31
0.0
  0
LINE
  5
682B
330
1F
100
AcDbEntity
  8
ﾏﾙｴｽｱﾙﾐﾊﾞｰ
  6
Continuous
370
     5
100
AcDbLine
 10
902.4154161567722
 20
2467.320991111968
 30
0.0
 11
902.4154161567722
 21
2469.570981111969
 31
0.0
  0
LINE
  5
682C
330
1F
100
AcDbEntity
  8
ﾏﾙｴｽｱﾙﾐﾊﾞｰ
  6
Continuous
370
     5
100
AcDbLine
 10
899.9154161567721
 20
2468.002651111968
 30
0.0
 11
899.9154161567721
 21
2469.570981111969
 31
0.0
  0
LINE
  5
682D
330
1F
100
AcDbEntity
  8
ﾏﾙｴｽｱﾙﾐﾊﾞｰ
  6
Continuous
370
     5
100
AcDbLine
 10
899.9154161567721
 20
2473.070981111968
 30
0.0
 11
902.4154161567722
 21
2473.070981111968
 31
0.0
  0
LINE
  5
682E
330
1F
100
AcDbEntity
  8
ﾏﾙｴｽｱﾙﾐﾊﾞｰ
  6
Continuous
370
     5
100
AcDbLine
 10
906.9154161567722
 20
2472.568631111968
 30
0.0
 11
906.9154161567722
 21
2471.821001111969
 31
0.0
  0
LINE
  5
682F
330
1F
100
AcDbEntity
  8
ﾏﾙｴｽｱﾙﾐﾊﾞｰ
  6
Continuous
370
     5
100
AcDbLine
 10
897.4154161567721
 20
2467.320991111968
 30
0.0
 11
899.9154161567721
 21
2468.002651111968
 31
0.0
  0
ARC
  5
6830
330
1F
100
AcDbEntity
  8
ﾏﾙｴｽｱﾙﾐﾊﾞｰ
  6
Continuous
370
     5
100
AcDbCircle
 10
904.9154161567722
 20
2470.002651111968
 30
0.0
 40
1.999999899999999
100
AcDbArc
 50
270.0
 51
0.0
  0
LINE
  5
6831
330
1F
100
AcDbEntity
  8
ﾏﾙｴｽｱﾙﾐﾊﾞｰ
  6
Continuous
370
     5
100
AcDbLine
 10
902.4154161567722
 20
2475.321001111968
 30
0.0
 11
902.4154161567722
 21
2473.070981111968
 31
0.0
  0
ARC
  5
6832
330
1F
100
AcDbEntity
  8
ﾏﾙｴｽｱﾙﾐﾊﾞｰ
  6
Continuous
370
     5
100
AcDbCircle
 10
904.9154161567722
 20
2472.568631111968
 30
0.0
 40
1.999999899999999
100
AcDbArc
 50
0.0
 51
90.0
  0
LINE
  5
6833
330
1F
100
AcDbEntity
  8
ﾏﾙｴｽｱﾙﾐﾊﾞｰ
  6
Continuous
370
     5
100
AcDbLine
 10
890.9154161567721
 20
2474.639331111968
 30
0.0
 11
890.9154161567721
 21
2473.070981111968
 31
0.0
  0
LINE
  5
6834
330
1F
100
AcDbEntity
  8
ﾏﾙｴｽｱﾙﾐﾊﾞｰ
  6
Continuous
370
     5
100
AcDbLine
 10
892.9154261567719
 20
2475.321001111968
 30
0.0
 11
892.9154261567719
 21
2473.070981111968
 31
0.0
  0
LINE
  5
6835
330
1F
100
AcDbEntity
  8
ﾏﾙｴｽｱﾙﾐﾊﾞｰ
  6
Continuous
370
     5
100
AcDbLine
 10
895.4154261567719
 20
2474.639331111968
 30
0.0
 11
895.4154261567719
 21
2473.070981111968
 31
0.0
  0
LINE
  5
6836
330
1F
100
AcDbEntity
  8
ﾏﾙｴｽｱﾙﾐﾊﾞｰ
  6
Continuous
370
     5
100
AcDbLine
 10
899.9154161567721
 20
2474.639331111968
 30
0.0
 11
899.9154161567721
 21
2473.070981111968
 31
0.0
  0
LINE
  5
6837
330
1F
100
AcDbEntity
  8
ﾏﾙｴｽｱﾙﾐﾊﾞｰ
  6
Continuous
370
     5
100
AcDbLine
 10
897.4154161567721
 20
2475.321001111968
 30
0.0
 11
897.4154161567721
 21
2473.070981111968
 31
0.0
  0
LINE
  5
6838
330
1F
100
AcDbEntity
  8
ﾏﾙｴｽｱﾙﾐﾊﾞｰ
  6
Continuous
370
     5
100
AcDbLine
 10
888.4154161567721
 20
2474.195991111967
 30
0.0
 11
888.4154161567721
 21
2473.070981111968
 31
0.0
  0
LINE
  5
6839
330
1F
100
AcDbEntity
  8
ﾏﾙｴｽｱﾙﾐﾊﾞｰ
  6
Continuous
370
     5
100
AcDbLine
 10
885.4154161567722
 20
2469.570981111969
 30
0.0
 11
888.4154161567721
 21
2469.570981111969
 31
0.0
  0
LINE
  5
683A
330
1F
100
AcDbEntity
  8
ﾏﾙｴｽｱﾙﾐﾊﾞｰ
  6
Continuous
370
     5
100
AcDbLine
 10
885.4154161567722
 20
2473.070981111968
 30
0.0
 11
888.4154161567721
 21
2473.070981111968
 31
0.0
  0
LINE
  5
683B
330
1F
100
AcDbEntity
  8
ﾏﾙｴｽｱﾙﾐﾊﾞｰ
  6
Continuous
370
     5
100
AcDbLine
 10
886.3689101960035
 20
2431.109378810656
 30
0.0
 11
886.3689101960035
 21
2429.584378810656
 31
0.0
  0
LINE
  5
683C
330
1F
100
AcDbEntity
  8
ﾏﾙｴｽｱﾙﾐﾊﾞｰ
  6
Continuous
370
     5
100
AcDbLine
 10
886.3689101960035
 20
2425.109378810658
 30
0.0
 11
886.3689101960035
 21
2426.634378810657
 31
0.0
  0
LINE
  5
683D
330
1F
100
AcDbEntity
  8
ﾏﾙｴｽｱﾙﾐﾊﾞｰ
  6
Continuous
370
     5
100
AcDbLine
 10
890.3689101960035
 20
2429.584378810656
 30
0.0
 11
888.7465501960033
 21
2429.584378810656
 31
0.0
  0
LINE
  5
683E
330
1F
100
AcDbEntity
  8
ﾏﾙｴｽｱﾙﾐﾊﾞｰ
  6
Continuous
370
     5
100
AcDbLine
 10
890.3689101960035
 20
2426.634378810657
 30
0.0
 11
888.7465501960033
 21
2426.634378810657
 31
0.0
  0
LINE
  5
683F
330
1F
100
AcDbEntity
  8
ﾏﾙｴｽｱﾙﾐﾊﾞｰ
  6
Continuous
370
     5
100
AcDbLine
 10
897.4154301960043
 20
2426.134378810656
 30
0.0
 11
897.4154301960043
 21
2427.634368810656
 31
0.0
  0
LINE
  5
6840
330
1F
100
AcDbEntity
  8
ﾏﾙｴｽｱﾙﾐﾊﾞｰ
  6
Continuous
370
     5
100
AcDbLine
 10
894.3689101960035
 20
2426.634378810657
 30
0.0
 11
892.3314201960037
 21
2426.634378810657
 31
0.0
  0
ARC
  5
6841
330
1F
100
AcDbEntity
  8
ﾏﾙｴｽｱﾙﾐﾊﾞｰ
  6
Continuous
370
     5
100
AcDbCircle
 10
890.7682601960042
 20
2429.596748810658
 30
0.0
 40
1.564461
100
AcDbArc
 50
359.5470599999935
 51
104.7892769999752
  0
LINE
  5
6842
330
1F
100
AcDbEntity
  8
ﾏﾙｴｽｱﾙﾐﾊﾞｰ
  6
Continuous
370
     5
100
AcDbLine
 10
890.3689101960035
 20
2431.109378810656
 30
0.0
 11
890.3689101960035
 21
2429.584378810656
 31
0.0
  0
LINE
  5
6843
330
1F
100
AcDbEntity
  8
ﾏﾙｴｽｱﾙﾐﾊﾞｰ
  6
Continuous
370
     5
100
AcDbLine
 10
894.3689101960035
 20
2431.109378810656
 30
0.0
 11
894.3689101960035
 21
2429.584378810656
 31
0.0
  0
LINE
  5
6844
330
1F
100
AcDbEntity
  8
ﾏﾙｴｽｱﾙﾐﾊﾞｰ
  6
Continuous
370
     5
100
AcDbLine
 10
897.4154301960043
 20
2430.084368810658
 30
0.0
 11
897.4154301960043
 21
2428.584378810656
 31
0.0
  0
LINE
  5
6845
330
1F
100
AcDbEntity
  8
ﾏﾙｴｽｱﾙﾐﾊﾞｰ
  6
Continuous
370
     5
100
AcDbLine
 10
897.4154301960043
 20
2430.084368810658
 30
0.0
 11
894.3689101960035
 21
2431.109378810656
 31
0.0
  0
LINE
  5
6846
330
1F
100
AcDbEntity
  8
ﾏﾙｴｽｱﾙﾐﾊﾞｰ
  6
Continuous
370
     5
100
AcDbLine
 10
894.3689101960035
 20
2429.584378810656
 30
0.0
 11
892.3314201960037
 21
2429.584378810656
 31
0.0
  0
ARC
  5
6847
330
1F
100
AcDbEntity
  8
ﾏﾙｴｽｱﾙﾐﾊﾞｰ
  6
Continuous
370
     5
100
AcDbCircle
 10
888.7465501960033
 20
2425.634378810656
 30
0.0
 40
0.9999998999999998
100
AcDbArc
 50
90.0
 51
114.5685890000086
  0
ARC
  5
6848
330
1F
100
AcDbEntity
  8
ﾏﾙｴｽｱﾙﾐﾊﾞｰ
  6
Continuous
370
     5
100
AcDbCircle
 10
888.7465501960033
 20
2430.584368810656
 30
0.0
 40
0.9999998999999998
100
AcDbArc
 50
245.4314299999657
 51
270.0
  0
ARC
  5
6849
330
1F
100
AcDbEntity
  8
ﾏﾙｴｽｱﾙﾐﾊﾞｰ
  6
Continuous
370
     5
100
AcDbCircle
 10
890.7682601960042
 20
2426.621998810656
 30
0.0
 40
1.564461
100
AcDbArc
 50
255.2107399999704
 51
0.4529600000080971
  0
LINE
  5
684A
330
1F
100
AcDbEntity
  8
ﾏﾙｴｽｱﾙﾐﾊﾞｰ
  6
Continuous
370
     5
100
AcDbLine
 10
890.3689101960035
 20
2425.109378810658
 30
0.0
 11
890.3689101960035
 21
2426.634378810657
 31
0.0
  0
LINE
  5
684B
330
1F
100
AcDbEntity
  8
ﾏﾙｴｽｱﾙﾐﾊﾞｰ
  6
Continuous
370
     5
100
AcDbLine
 10
894.3689101960035
 20
2425.109378810658
 30
0.0
 11
894.3689101960035
 21
2426.634378810657
 31
0.0
  0
LINE
  5
684C
330
1F
100
AcDbEntity
  8
ﾏﾙｴｽｱﾙﾐﾊﾞｰ
  6
Continuous
370
     5
100
AcDbLine
 10
897.4154301960043
 20
2426.134378810656
 30
0.0
 11
894.3689101960035
 21
2425.109378810658
 31
0.0
  0
ARC
  5
684D
330
1F
100
AcDbEntity
  8
ﾏﾙｴｽｱﾙﾐﾊﾞｰ
  6
Continuous
370
     5
100
AcDbCircle
 10
886.7682601960041
 20
2426.621998810656
 30
0.0
 40
1.564461
100
AcDbArc
 50
255.2107399999704
 51
357.1360399999898
  0
ARC
  5
684E
330
1F
100
AcDbEntity
  8
ﾏﾙｴｽｱﾙﾐﾊﾞｰ
  6
Continuous
370
     5
100
AcDbCircle
 10
886.7682601960041
 20
2429.596748810658
 30
0.0
 40
1.564461
100
AcDbArc
 50
2.863989999990877
 51
104.7892769999752
  0
LINE
  5
684F
330
1F
100
AcDbEntity
  8
ﾏﾙｴｽｱﾙﾐﾊﾞｰ
  6
Continuous
370
     5
100
AcDbLine
 10
858.678276161755
 20
2475.822981111968
 30
0.0
 11
859.1782861617549
 21
2475.824301111968
 31
0.0
  0
ARC
  5
6850
330
1F
100
AcDbEntity
  8
ﾏﾙｴｽｱﾙﾐﾊﾞｰ
  6
Continuous
370
     5
100
AcDbCircle
 10
859.1795961617554
 20
2475.324281111968
 30
0.0
 40
0.4999999
100
AcDbArc
 50
0.1508200000092695
 51
90.1508179999865
  0
LINE
  5
6851
330
1F
100
AcDbEntity
  8
ﾏﾙｴｽｱﾙﾐﾊﾞｰ
  6
Continuous
370
     5
100
AcDbLine
 10
880.2293961567711
 20
2475.321001111968
 30
0.0
 11
867.415426156772
 21
2475.321001111968
 31
0.0
  0
LINE
  5
6852
330
1F
100
AcDbEntity
  8
ﾏﾙｴｽｱﾙﾐﾊﾞｰ
  6
Continuous
370
     5
100
AcDbLine
 10
856.1953961617556
 20
2469.316421111968
 30
0.0
 11
856.191456161755
 21
2470.816421111968
 31
0.0
  0
LINE
  5
6853
330
1F
100
AcDbEntity
  8
ﾏﾙｴｽｱﾙﾐﾊﾞｰ
  6
Continuous
370
     5
100
AcDbLine
 10
856.1888161617561
 20
2471.816401111968
 30
0.0
 11
856.1848561617553
 21
2473.316411111968
 31
0.0
  0
LINE
  5
6854
330
1F
100
AcDbEntity
  8
ﾏﾙｴｽｱﾙﾐﾊﾞｰ
  6
Continuous
370
     5
100
AcDbLine
 10
857.9278161617558
 20
2471.821001111969
 30
0.0
 11
857.930436161755
 21
2470.820991111969
 31
0.0
  0
LINE
  5
6855
330
1F
100
AcDbEntity
  8
ﾏﾙｴｽｱﾙﾐﾊﾞｰ
  6
Continuous
370
     5
100
AcDbLine
 10
856.1888161617561
 20
2471.816401111968
 30
0.0
 11
857.930326161756
 21
2471.821001111969
 31
0.0
  0
LINE
  5
6856
330
1F
100
AcDbEntity
  8
ﾏﾙｴｽｱﾙﾐﾊﾞｰ
  6
Continuous
370
     5
100
AcDbLine
 10
857.930436161755
 20
2470.820991111969
 30
0.0
 11
856.1889161617555
 21
2470.816421111968
 31
0.0
  0
LINE
  5
6857
330
1F
100
AcDbEntity
  8
ﾏﾙｴｽｱﾙﾐﾊﾞｰ
  6
Continuous
370
     5
100
AcDbLine
 10
876.9154161567721
 20
2471.821001111969
 30
0.0
 11
876.9154161567721
 21
2470.82099111197
 31
0.0
  0
LINE
  5
6858
330
1F
100
AcDbEntity
  8
ﾏﾙｴｽｱﾙﾐﾊﾞｰ
  6
Continuous
370
     5
100
AcDbLine
 10
882.9154161567721
 20
2469.570981111969
 30
0.0
 11
880.1235661567707
 21
2469.570981111969
 31
0.0
  0
LINE
  5
6859
330
1F
100
AcDbEntity
  8
ﾏﾙｴｽｱﾙﾐﾊﾞｰ
  6
Continuous
370
     5
100
AcDbLine
 10
880.1235661567707
 20
2467.320991111968
 30
0.0
 11
880.1235661567707
 21
2469.570981111969
 31
0.0
  0
LINE
  5
685A
330
1F
100
AcDbEntity
  8
ﾏﾙｴｽｱﾙﾐﾊﾞｰ
  6
Continuous
370
     5
100
AcDbLine
 10
882.9154161567721
 20
2467.320991111968
 30
0.0
 11
882.9154161567721
 21
2469.570981111969
 31
0.0
  0
LINE
  5
685B
330
1F
100
AcDbEntity
  8
ﾏﾙｴｽｱﾙﾐﾊﾞｰ
  6
Continuous
370
     5
100
AcDbLine
 10
882.9154161567721
 20
2473.070981111968
 30
0.0
 11
880.2293961567711
 21
2473.070981111968
 31
0.0
  0
LINE
  5
685C
330
1F
100
AcDbEntity
  8
ﾏﾙｴｽｱﾙﾐﾊﾞｰ
  6
Continuous
370
     5
100
AcDbLine
 10
867.415426156772
 20
2467.320991111968
 30
0.0
 11
880.1235661567707
 21
2467.320991111968
 31
0.0
  0
LINE
  5
685D
330
1F
100
AcDbEntity
  8
ﾏﾙｴｽｱﾙﾐﾊﾞｰ
  6
Continuous
370
     5
100
AcDbLine
 10
859.6347461617561
 20
2475.521211111967
 30
0.0
 11
859.6347461617561
 21
2467.521201111968
 31
0.0
  0
LINE
  5
685E
330
1F
100
AcDbEntity
  8
ﾏﾙｴｽｱﾙﾐﾊﾞｰ
  6
Continuous
370
     5
100
AcDbLine
 10
859.6350261617562
 20
2475.167651111968
 30
0.0
 11
859.6344761617556
 21
2467.167641111968
 31
0.0
  0
LINE
  5
685F
330
1F
100
AcDbEntity
  8
ﾏﾙｴｽｱﾙﾐﾊﾞｰ
  6
Continuous
370
     5
100
AcDbLine
 10
880.2293961567711
 20
2473.070981111968
 30
0.0
 11
880.2293961567711
 21
2475.321001111968
 31
0.0
  0
LINE
  5
6860
330
1F
100
AcDbEntity
  8
ﾏﾙｴｽｱﾙﾐﾊﾞｰ
  6
Continuous
370
     5
100
AcDbLine
 10
882.9154161567721
 20
2475.321001111968
 30
0.0
 11
882.9154161567721
 21
2473.070981111968
 31
0.0
  0
ARC
  5
6861
330
1F
100
AcDbEntity
  8
ﾏﾙｴｽｱﾙﾐﾊﾞｰ
  6
Continuous
370
     5
100
AcDbCircle
 10
858.6848561617554
 20
2473.322971111968
 30
0.0
 40
2.5
100
AcDbArc
 50
90.1508179999865
 51
180.1508200000092
  0
LINE
  5
6862
330
1F
100
AcDbEntity
  8
ｶｽﾀﾑｺｰﾁﾝｸﾞS
  6
Continuous
370
     5
100
AcDbLine
 10
850.4194563690834
 20
2440.404688684055
 30
0.0
 11
850.416266369084
 21
2440.407868684055
 31
0.0
  0
LINE
  5
6863
330
1F
100
AcDbEntity
  8
ｶｽﾀﾑｺｰﾁﾝｸﾞS
  6
Continuous
370
     5
100
AcDbLine
 10
850.4194563690834
 20
2440.404688684055
 30
0.0
 11
850.416266369084
 21
2440.407868684055
 31
0.0
  0
LINE
  5
6864
330
1F
100
AcDbEntity
  8
端末押え金物
  6
Continuous
370
     5
100
AcDbLine
 10
850.4154263690852
 20
2440.404688684055
 30
0.0
 11
850.4154263690852
 21
2438.404688684055
 31
0.0
  0
LINE
  5
6865
330
1F
100
AcDbEntity
  8
ｶｽﾀﾑｺｰﾁﾝｸﾞS
  6
Continuous
370
     5
100
AcDbLine
 10
852.9064390420844
 20
2449.760401891151
 30
0.0
 11
867.4154301960053
 21
2449.760402042516
 31
0.0
  0
LINE
  5
6866
330
1F
100
AcDbEntity
  8
ｶｽﾀﾑｺｰﾁﾝｸﾞS
  6
Continuous
370
     5
100
AcDbLine
 10
865.7751805183162
 20
2440.40468879844
 30
0.0
 11
860.9407850862371
 21
2449.76040197497
 31
0.0
  0
LINE
  5
6867
330
1F
100
AcDbEntity
  8
ｶｽﾀﾑｺｰﾁﾝｸﾞS
  6
Continuous
370
     5
100
AcDbLine
 10
865.7751805183162
 20
2440.404688798441
 30
0.0
 11
860.9407850862362
 21
2449.76040197497
 31
0.0
  0
LINE
  5
6868
330
1F
100
AcDbEntity
  8
ｶｽﾀﾑｺｰﾁﾝｸﾞS
  6
Continuous
370
     5
100
AcDbLine
 10
867.4154261567728
 20
2441.587094579297
 30
0.0
 11
863.1920174965644
 21
2449.760401998456
 31
0.0
  0
LINE
  5
6869
330
1F
100
AcDbEntity
  8
ｶｽﾀﾑｺｰﾁﾝｸﾞS
  6
Continuous
370
     5
100
AcDbLine
 10
863.5239481491126
 20
2440.404688695368
 30
0.0
 11
858.6895526759107
 21
2449.760401951484
 31
0.0
  0
LINE
  5
686A
330
1F
100
AcDbEntity
  8
ｶｽﾀﾑｺｰﾁﾝｸﾞS
  6
Continuous
370
     5
100
AcDbLine
 10
861.2727156907139
 20
2440.40468876491
 30
0.0
 11
856.4383202655799
 21
2449.760401927998
 31
0.0
  0
LINE
  5
686B
330
1F
100
AcDbEntity
  8
ｶｽﾀﾑｺｰﾁﾝｸﾞS
  6
Continuous
370
     5
100
AcDbLine
 10
859.0214832769124
 20
2440.404688748145
 30
0.0
 11
854.1870878552508
 21
2449.760401904511
 31
0.0
  0
LINE
  5
686C
330
1F
100
AcDbEntity
  8
ｶｽﾀﾑｺｰﾁﾝｸﾞS
  6
Continuous
370
     5
100
AcDbLine
 10
856.7702508631118
 20
2440.40468873138
 30
0.0
 11
852.5763910756268
 21
2448.520812003781
 31
0.0
  0
LINE
  5
686D
330
1F
100
AcDbEntity
  8
ｶｽﾀﾑｺｰﾁﾝｸﾞS
  6
Continuous
370
     5
100
AcDbLine
 10
854.5190184493112
 20
2440.404688714615
 30
0.0
 11
851.8108571419961
 21
2445.645629548476
 31
0.0
  0
LINE
  5
686E
330
1F
100
AcDbEntity
  8
ｶｽﾀﾑｺｰﾁﾝｸﾞS
  6
Continuous
370
     5
100
AcDbLine
 10
852.2677860355106
 20
2440.40468869785
 30
0.0
 11
851.0453232083655
 21
2442.770447093171
 31
0.0
  0
LINE
  5
686F
330
1F
100
AcDbEntity
  8
ﾏﾙｴｽｱﾙﾐﾊﾞｰ
  6
Continuous
370
     5
100
AcDbLine
 10
853.4045863690852
 20
2426.895958684055
 30
0.0
 11
853.4045863690852
 21
2427.609378684055
 31
0.0
  0
LINE
  5
6870
330
1F
100
AcDbEntity
  8
ﾏﾙｴｽｱﾙﾐﾊﾞｰ
  6
Continuous
370
     5
100
AcDbLine
 10
853.4019463690848
 20
2428.609378684055
 30
0.0
 11
854.6556463690849
 21
2428.609378684055
 31
0.0
  0
LINE
  5
6871
330
1F
100
AcDbEntity
  8
ﾏﾙｴｽｱﾙﾐﾊﾞｰ
  6
Continuous
370
     5
100
AcDbLine
 10
854.6557563690848
 20
2427.609378684055
 30
0.0
 11
853.4020463690849
 21
2427.609378684055
 31
0.0
  0
ARC
  5
6872
330
1F
100
AcDbEntity
  8
ﾏﾙｴｽｱﾙﾐﾊﾞｰ
  6
Continuous
370
     5
100
AcDbCircle
 10
855.8979863690847
 20
2429.398508684057
 30
0.0
 40
2.5
100
AcDbArc
 50
90.1508179999865
 51
180.1508200000092
  0
LINE
  5
6873
330
1F
100
AcDbEntity
  8
ﾏﾙｴｽｱﾙﾐﾊﾞｰ
  6
Continuous
370
     5
100
AcDbLine
 10
854.6531163690852
 20
2428.609378684055
 30
0.0
 11
854.6557563690848
 21
2427.609378684055
 31
0.0
  0
LINE
  5
6874
330
1F
100
AcDbEntity
  8
ﾏﾙｴｽｱﾙﾐﾊﾞｰ
  6
Continuous
370
     5
100
AcDbLine
 10
855.7079963690849
 20
2431.895228684057
 30
0.0
 11
855.9035863690851
 21
2431.895228684057
 31
0.0
  0
ARC
  5
6875
330
1F
100
AcDbEntity
  8
ﾏﾙｴｽｱﾙﾐﾊﾞｰ
  6
Continuous
370
     5
100
AcDbCircle
 10
855.9048963690848
 20
2431.395218684055
 30
0.0
 40
0.4999999
100
AcDbArc
 50
0.1508200000092695
 51
90.1508179999865
  0
LINE
  5
6876
330
1F
100
AcDbEntity
  8
ﾏﾙｴｽｱﾙﾐﾊﾞｰ
  6
Continuous
370
     5
100
AcDbLine
 10
853.4019463690848
 20
2428.609378684055
 30
0.0
 11
853.3979863690847
 21
2429.398508684057
 31
0.0
  0
LINE
  5
6877
330
1F
100
AcDbEntity
  8
ﾏﾙｴｽｱﾙﾐﾊﾞｰ
  6
Continuous
370
     5
100
AcDbLine
 10
867.4154301960042
 20
2431.109378810656
 30
0.0
 11
867.4154301960042
 21
2428.109388810657
 31
0.0
  0
LINE
  5
6878
330
1F
100
AcDbEntity
  8
ﾏﾙｴｽｱﾙﾐﾊﾞｰ
  6
Continuous
370
     5
100
AcDbLine
 10
877.5895201960029
 20
2426.634378810657
 30
0.0
 11
876.3689001960029
 21
2426.634378810657
 31
0.0
  0
LINE
  5
6879
330
1F
100
AcDbEntity
  8
ﾏﾙｴｽｱﾙﾐﾊﾞｰ
  6
Continuous
370
     5
100
AcDbLine
 10
877.5895201960029
 20
2429.584378810656
 30
0.0
 11
876.3689001960029
 21
2429.584378810656
 31
0.0
  0
LINE
  5
687A
330
1F
100
AcDbEntity
  8
ﾏﾙｴｽｱﾙﾐﾊﾞｰ
  6
Continuous
370
     5
100
AcDbLine
 10
877.5895201960029
 20
2431.072388810656
 30
0.0
 11
877.5895201960029
 21
2429.584378810656
 31
0.0
  0
LINE
  5
687B
330
1F
100
AcDbEntity
  8
ﾏﾙｴｽｱﾙﾐﾊﾞｰ
  6
Continuous
370
     5
100
AcDbLine
 10
873.4154301960042
 20
2428.584378810656
 30
0.0
 11
873.4154301960042
 21
2427.634368810656
 31
0.0
  0
LINE
  5
687C
330
1F
100
AcDbEntity
  8
ﾏﾙｴｽｱﾙﾐﾊﾞｰ
  6
Continuous
370
     5
100
AcDbLine
 10
876.3689001960029
 20
2429.584378810656
 30
0.0
 11
874.8439001960033
 21
2431.109378810656
 31
0.0
  0
LINE
  5
687D
330
1F
100
AcDbEntity
  8
ﾏﾙｴｽｱﾙﾐﾊﾞｰ
  6
Continuous
370
     5
100
AcDbLine
 10
879.5264401960031
 20
2426.634378810657
 30
0.0
 11
879.5264401960031
 21
2426.587188810656
 31
0.0
  0
ARC
  5
687E
330
1F
100
AcDbEntity
  8
ﾏﾙｴｽｱﾙﾐﾊﾞｰ
  6
Continuous
370
     5
100
AcDbCircle
 10
882.3689001960028
 20
2426.134378810656
 30
0.0
 40
0.4999999
100
AcDbArc
 50
320.8424699999826
 51
90.0
  0
LINE
  5
687F
330
1F
100
AcDbEntity
  8
ﾏﾙｴｽｱﾙﾐﾊﾞｰ
  6
Continuous
370
     5
100
AcDbLine
 10
884.5965401960038
 20
2426.634378810657
 30
0.0
 11
884.5964901960032
 21
2426.634348810656
 31
0.0
  0
LINE
  5
6880
330
1F
100
AcDbEntity
  8
ﾏﾙｴｽｱﾙﾐﾊﾞｰ
  6
Continuous
370
     5
100
AcDbLine
 10
882.3689001960028
 20
2426.634378810657
 30
0.0
 11
879.5264401960031
 21
2426.634378810657
 31
0.0
  0
LINE
  5
6881
330
1F
100
AcDbEntity
  8
ﾏﾙｴｽｱﾙﾐﾊﾞｰ
  6
Continuous
370
     5
100
AcDbLine
 10
879.5264401960031
 20
2429.584378810656
 30
0.0
 11
879.5264401960031
 21
2429.631568810656
 31
0.0
  0
ARC
  5
6882
330
1F
100
AcDbEntity
  8
ﾏﾙｴｽｱﾙﾐﾊﾞｰ
  6
Continuous
370
     5
100
AcDbCircle
 10
882.3689001960028
 20
2430.084368810658
 30
0.0
 40
0.4999999
100
AcDbArc
 50
270.0
 51
39.15754999997643
  0
LINE
  5
6883
330
1F
100
AcDbEntity
  8
ﾏﾙｴｽｱﾙﾐﾊﾞｰ
  6
Continuous
370
     5
100
AcDbLine
 10
884.5965401960038
 20
2429.584378810656
 30
0.0
 11
884.5964901960032
 21
2429.584418810657
 31
0.0
  0
LINE
  5
6884
330
1F
100
AcDbEntity
  8
ﾏﾙｴｽｱﾙﾐﾊﾞｰ
  6
Continuous
370
     5
100
AcDbLine
 10
882.3689001960028
 20
2429.584378810656
 30
0.0
 11
879.5264401960031
 21
2429.584378810656
 31
0.0
  0
ARC
  5
6885
330
1F
100
AcDbEntity
  8
ﾏﾙｴｽｱﾙﾐﾊﾞｰ
  6
Continuous
370
     5
100
AcDbCircle
 10
877.9639301960033
 20
2429.553398810656
 30
0.0
 40
1.564461
100
AcDbArc
 50
2.863989999990877
 51
103.8462990000133
  0
LINE
  5
6886
330
1F
100
AcDbEntity
  8
ﾏﾙｴｽｱﾙﾐﾊﾞｰ
  6
Continuous
370
     5
100
AcDbLine
 10
882.7566101960037
 20
2430.400098810656
 30
0.0
 11
876.9692201960042
 21
2436.187488810656
 31
0.0
  0
LINE
  5
6887
330
1F
100
AcDbEntity
  8
ﾏﾙｴｽｱﾙﾐﾊﾞｰ
  6
Continuous
370
     5
100
AcDbLine
 10
883.301820196004
 20
2431.821848810656
 30
0.0
 11
876.9692201960042
 21
2436.187488810656
 31
0.0
  0
LINE
  5
6888
330
1F
100
AcDbEntity
  8
ﾏﾙｴｽｱﾙﾐﾊﾞｰ
  6
Continuous
370
     5
100
AcDbLine
 10
874.8439001960033
 20
2431.109378810656
 30
0.0
 11
867.4154301960042
 21
2431.109378810656
 31
0.0
  0
LINE
  5
6889
330
1F
100
AcDbEntity
  8
ﾏﾙｴｽｱﾙﾐﾊﾞｰ
  6
Continuous
370
     5
100
AcDbLine
 10
855.9272663690853
 20
2424.395238684055
 30
0.0
 11
855.9150963690854
 21
2424.398508684055
 31
0.0
  0
ARC
  5
688A
330
1F
100
AcDbEntity
  8
ﾏﾙｴｽｱﾙﾐﾊﾞｰ
  6
Continuous
370
     5
100
AcDbCircle
 10
855.925946369085
 20
2424.895238684055
 30
0.0
 40
0.4999999
100
AcDbArc
 50
270.1508199999832
 51
0.1508200000092695
  0
LINE
  5
688B
330
1F
100
AcDbEntity
  8
端末押え金物
  6
Continuous
370
     5
100
AcDbLine
 10
858.4154263690852
 20
2410.404688684055
 30
0.0
 11
856.4154263690852
 21
2410.404688684055
 31
0.0
  0
LINE
  5
688C
330
1F
100
AcDbEntity
  8
ﾏﾙｴｽｱﾙﾐﾊﾞｰ
  6
Continuous
370
     5
100
AcDbLine
 10
883.301820196004
 20
2424.396908810658
 30
0.0
 11
876.9692201960042
 21
2420.031258810658
 31
0.0
  0
LINE
  5
688D
330
1F
100
AcDbEntity
  8
ﾏﾙｴｽｱﾙﾐﾊﾞｰ
  6
Continuous
370
     5
100
AcDbLine
 10
874.8439001960033
 20
2425.109378810658
 30
0.0
 11
867.4154301960042
 21
2425.109378810658
 31
0.0
  0
LINE
  5
688E
330
1F
100
AcDbEntity
  8
端末押え金物
  6
Continuous
370
     5
100
AcDbLine
 10
858.4154263690852
 20
2410.404688684055
 30
0.0
 11
858.4154263690852
 21
2438.404688684055
 31
0.0
  0
LINE
  5
688F
330
1F
100
AcDbEntity
  8
ﾏﾙｴｽｱﾙﾐﾊﾞｰ
  6
Continuous
370
     5
100
AcDbLine
 10
867.4154301960042
 20
2425.109378810658
 30
0.0
 11
867.4154301960042
 21
2428.109388810657
 31
0.0
  0
LINE
  5
6890
330
1F
100
AcDbEntity
  8
ﾏﾙｴｽｱﾙﾐﾊﾞｰ
  6
Continuous
370
     5
100
AcDbLine
 10
882.7566101960037
 20
2425.818658810656
 30
0.0
 11
876.9692201960042
 21
2420.031258810658
 31
0.0
  0
LINE
  5
6891
330
1F
100
AcDbEntity
  8
ﾏﾙｴｽｱﾙﾐﾊﾞｰ
  6
Continuous
370
     5
100
AcDbLine
 10
877.5895201960029
 20
2425.146358810657
 30
0.0
 11
877.5895201960029
 21
2426.634378810657
 31
0.0
  0
ARC
  5
6892
330
1F
100
AcDbEntity
  8
ﾏﾙｴｽｱﾙﾐﾊﾞｰ
  6
Continuous
370
     5
100
AcDbCircle
 10
877.9639301960033
 20
2426.665348810657
 30
0.0
 40
1.564461
100
AcDbArc
 50
256.1537200000034
 51
357.1360399999898
  0
LINE
  5
6893
330
1F
100
AcDbEntity
  8
ﾏﾙｴｽｱﾙﾐﾊﾞｰ
  6
Continuous
370
     5
100
AcDbLine
 10
876.3689001960029
 20
2426.634378810657
 30
0.0
 11
874.8439001960033
 21
2425.109378810658
 31
0.0
  0
LINE
  5
6894
330
1F
100
AcDbEntity
  8
ﾏﾙｴｽｱﾙﾐﾊﾞｰ
  6
Continuous
370
     5
100
AcDbLine
 10
856.4049063690863
 20
2431.396528684055
 30
0.0
 11
856.4259563690857
 21
2424.896558684055
 31
0.0
  0
ARC
  5
6895
330
1F
100
AcDbEntity
  8
ﾏﾙｴｽｱﾙﾐﾊﾞｰ
  6
Continuous
370
     5
100
AcDbCircle
 10
855.908526369085
 20
2426.898488684055
 30
0.0
 40
2.503940499999999
100
AcDbArc
 50
180.0578800000104
 51
270.1508199999832
  0
LINE
  5
6896
330
1F
100
AcDbEntity
  8
ｶｽﾀﾑｺｰﾁﾝｸﾞS
  6
Continuous
370
     5
100
AcDbLine
 10
867.4154301960042
 20
2455.451648810655
 30
0.0
 11
867.4154301960042
 21
2440.404688810656
 31
0.0
  0
LINE
  5
6897
330
1F
100
AcDbEntity
  8
ｶｽﾀﾑｺｰﾁﾝｸﾞS
  6
Continuous
370
     5
100
AcDbLine
 10
850.4154263690852
 20
2440.404688684055
 30
0.0
 11
852.9064390420844
 21
2449.760401891151
 31
0.0
  0
LINE
  5
6898
330
1F
100
AcDbEntity
  8
端末押え金物
  6
Continuous
370
     5
100
AcDbLine
 10
856.4154263690852
 20
2438.404688684055
 30
0.0
 11
850.4154263690852
 21
2438.404688684055
 31
0.0
  0
LINE
  5
6899
330
1F
100
AcDbEntity
  8
ｶｽﾀﾑｺｰﾁﾝｸﾞS
  6
Continuous
370
     5
100
AcDbLine
 10
850.4154263690852
 20
2440.404688684055
 30
0.0
 11
867.4154261567728
 21
2440.404688684055
 31
0.0
  0
LINE
  5
689A
330
1F
100
AcDbEntity
  8
躯体
370
     5
100
AcDbLine
 10
857.4154261567727
 20
2519.679778919908
 30
0.0
 11
857.4154261567727
 21
2625.146116127468
 31
0.0
  0
LINE
  5
689B
330
1F
100
AcDbEntity
  8
躯体
370
     5
100
AcDbLine
 10
867.4154261567728
 20
2490.404688758526
 30
0.0
 11
857.4154261567727
 21
2490.404688758526
 31
0.0
  0
LINE
  5
689C
330
1F
100
AcDbEntity
  8
躯体
370
     5
100
AcDbLine
 10
857.4154261567727
 20
2490.404688758526
 30
0.0
 11
857.4154261567727
 21
2519.679778919908
 31
0.0
  0
LINE
  5
689D
330
1F
100
AcDbEntity
  8
躯体
370
     5
100
AcDbLine
 10
997.4154261567736
 20
2193.680704142689
 30
0.0
 11
296.0413854993394
 21
1983.268491945458
 31
0.0
  0
LINE
  5
689E
330
1F
100
AcDbEntity
  8
躯体
370
     5
100
AcDbLine
 10
867.4154261567737
 20
2290.404688758526
 30
0.0
 11
867.4154261567728
 21
2490.404688758526
 31
0.0
  0
LINE
  5
689F
330
1F
100
AcDbEntity
  8
ｶｽﾀﾑﾍﾞｰｽ
370
     5
100
AcDbLine
 10
865.9154301960043
 20
2440.404688810656
 30
0.0
 11
865.915426176166
 21
2291.520734740681
 31
0.0
  0
LINE
  5
68A0
330
1F
100
AcDbEntity
  8
ﾏﾙｴｽｼﾝｸﾞﾙ
370
     5
100
AcDbLine
 10
863.4154269716864
 20
2321.520734740681
 30
0.0
 11
863.4154262084885
 21
2293.380811377605
 31
0.0
  0
LINE
  5
68A1
330
1F
100
AcDbEntity
  8
ﾏﾙｴｽｼﾝｸﾞﾙ
370
     5
100
AcDbLine
 10
860.9154270394901
 20
2324.020734740681
 30
0.0
 11
860.9154262589363
 21
2295.240888019971
 31
0.0
  0
LINE
  5
68A2
330
1F
100
AcDbEntity
  8
ﾏﾙｴｽｼﾝｸﾞﾙ
370
     5
100
AcDbLine
 10
620.8459194762253
 20
2217.999882730722
 30
0.0
 11
501.5965469661877
 21
2182.225070977722
 31
0.0
  0
LINE
  5
68A3
330
1F
100
AcDbEntity
  8
ﾏﾙｴｽｼﾝｸﾞﾙ
370
     5
100
AcDbLine
 10
675.4191472841885
 20
2234.371851073106
 30
0.0
 11
623.2404851892779
 21
2218.718252444637
 31
0.0
  0
LINE
  5
68A4
330
1F
100
AcDbEntity
  8
ｶｽﾀﾑﾍﾞｰｽ
370
     5
100
AcDbLine
 10
865.9154261761669
 20
2291.52073474068
 30
0.0
 11
544.7109045504239
 21
2195.159378252989
 31
0.0
  0
LINE
  5
68A5
330
1F
100
AcDbEntity
  8
ﾏﾙｴｽｼﾝｸﾞﾙ
370
     5
100
AcDbLine
 10
376.8396733161317
 20
2147.408085509944
 30
0.0
 11
377.558043030047
 21
2145.013519796891
 31
0.0
  0
LINE
  5
68A6
330
1F
100
AcDbEntity
  8
ﾏﾙｴｽｼﾝｸﾞﾙ
370
     5
100
AcDbLine
 10
376.8396733161317
 20
2147.408085509944
 30
0.0
 11
294.8919939570597
 21
2122.82378170223
 31
0.0
  0
LINE
  5
68A7
330
1F
100
AcDbEntity
  8
ﾏﾙｴｽｼﾝｸﾞﾙ
370
     5
100
AcDbLine
 10
377.558043030047
 20
2145.013519796891
 30
0.0
 11
295.610363670975
 21
2120.429215989178
 31
0.0
  0
LINE
  5
68A8
330
1F
100
AcDbEntity
  8
ﾏﾙｴｽｼﾝｸﾞﾙ
370
     5
100
AcDbLine
 10
377.1131651965552
 20
2150.100209701299
 30
0.0
 11
294.1736242431434
 21
2125.218347415284
 31
0.0
  0
LINE
  5
68A9
330
1F
100
AcDbEntity
  8
ﾏﾙｴｽｼﾝｸﾞﾙ
370
     5
100
AcDbLine
 10
379.9526087430986
 20
2145.731889510807
 30
0.0
 11
376.8396733161317
 21
2147.408085509944
 31
0.0
  0
LINE
  5
68AA
330
1F
100
AcDbEntity
  8
ﾏﾙｴｽｼﾝｸﾞﾙ
370
     5
100
AcDbLine
 10
380.2261006235239
 20
2148.424013702161
 30
0.0
 11
377.1131651965552
 21
2150.100209701299
 31
0.0
  0
LINE
  5
68AB
330
1F
100
AcDbEntity
  8
ﾏﾙｴｽｼﾝｸﾞﾙ
370
     5
100
AcDbLine
 10
498.4836115392209
 20
2183.901266976859
 30
0.0
 11
499.2019812531362
 21
2181.506701263806
 31
0.0
  0
LINE
  5
68AC
330
1F
100
AcDbEntity
  8
ﾏﾙｴｽｼﾝｸﾞﾙ
370
     5
100
AcDbLine
 10
499.2019812531362
 20
2181.506701263806
 30
0.0
 11
379.9526087430986
 21
2145.731889510807
 31
0.0
  0
LINE
  5
68AD
330
1F
100
AcDbEntity
  8
ﾏﾙｴｽｼﾝｸﾞﾙ
370
     5
100
AcDbLine
 10
498.4836115392209
 20
2183.901266976859
 30
0.0
 11
380.2261006235239
 21
2148.424013702161
 31
0.0
  0
LINE
  5
68AE
330
1F
100
AcDbEntity
  8
ﾏﾙｴｽｼﾝｸﾞﾙ
370
     5
100
AcDbLine
 10
327.2721630559345
 20
2135.147909059117
 30
0.0
 11
377.1131651965552
 21
2150.100209701299
 31
0.0
  0
LINE
  5
68AF
330
1F
100
AcDbEntity
  8
ﾏﾙｴｽｼﾝｸﾞﾙ
370
     5
100
AcDbLine
 10
498.4836115392209
 20
2183.901266976859
 30
0.0
 11
380.2261006235239
 21
2148.424013702161
 31
0.0
  0
LINE
  5
68B0
330
1F
100
AcDbEntity
  8
ﾏﾙｴｽｼﾝｸﾞﾙ
370
     5
100
AcDbLine
 10
380.2261006235239
 20
2148.424013702161
 30
0.0
 11
377.1131651965552
 21
2150.100209701299
 31
0.0
  0
LINE
  5
68B1
330
1F
100
AcDbEntity
  8
ﾏﾙｴｽｼﾝｸﾞﾙ
370
     5
100
AcDbLine
 10
380.4995925039484
 20
2151.116137893517
 30
0.0
 11
377.3866570769787
 21
2152.792333892653
 31
0.0
  0
LINE
  5
68B2
330
1F
100
AcDbEntity
  8
ﾏﾙｴｽｼﾝｸﾞﾙ
370
     5
100
AcDbLine
 10
327.2721630559345
 20
2135.147909059117
 30
0.0
 11
326.5537933420183
 21
2137.54247477217
 31
0.0
  0
LINE
  5
68B3
330
1F
100
AcDbEntity
  8
ﾏﾙｴｽｼﾝｸﾞﾙ
370
     5
100
AcDbLine
 10
326.5537933420183
 20
2137.54247477217
 30
0.0
 11
377.3866570769787
 21
2152.792333892653
 31
0.0
  0
LINE
  5
68B4
330
1F
100
AcDbEntity
  8
ﾏﾙｴｽｼﾝｸﾞﾙ
370
     5
100
AcDbLine
 10
498.7571034196434
 20
2186.593391168214
 30
0.0
 11
380.4995925039484
 21
2151.116137893517
 31
0.0
  0
LINE
  5
68B5
330
1F
100
AcDbEntity
  8
ﾏﾙｴｽｼﾝｸﾞﾙ
370
     5
100
AcDbLine
 10
377.1131651965552
 20
2150.100209701299
 30
0.0
 11
327.2721630559345
 21
2135.147909059117
 31
0.0
  0
LINE
  5
68B6
330
1F
100
AcDbEntity
  8
ﾏﾙｴｽｼﾝｸﾞﾙ
370
     5
100
AcDbLine
 10
501.5965469661877
 20
2182.225070977722
 30
0.0
 11
498.4836115392209
 21
2183.901266976859
 31
0.0
  0
LINE
  5
68B7
330
1F
100
AcDbEntity
  8
ﾏﾙｴｽｼﾝｸﾞﾙ
370
     5
100
AcDbLine
 10
501.8700388466132
 20
2184.917195169077
 30
0.0
 11
498.7571034196434
 21
2186.593391168214
 31
0.0
  0
LINE
  5
68B8
330
1F
100
AcDbEntity
  8
ﾏﾙｴｽｼﾝｸﾞﾙ
370
     5
100
AcDbLine
 10
620.12754976231
 20
2220.394448443775
 30
0.0
 11
620.8459194762253
 21
2217.999882730722
 31
0.0
  0
LINE
  5
68B9
330
1F
100
AcDbEntity
  8
ﾏﾙｴｽｼﾝｸﾞﾙ
370
     5
100
AcDbLine
 10
620.12754976231
 20
2220.394448443775
 30
0.0
 11
501.8700388466132
 21
2184.917195169077
 31
0.0
  0
LINE
  5
68BA
330
1F
100
AcDbEntity
  8
ﾏﾙｴｽｼﾝｸﾞﾙ
370
     5
100
AcDbLine
 10
448.9161012790236
 20
2171.641090526033
 30
0.0
 11
498.7571034196434
 21
2186.593391168214
 31
0.0
  0
LINE
  5
68BB
330
1F
100
AcDbEntity
  8
ﾏﾙｴｽｼﾝｸﾞﾙ
370
     5
100
AcDbLine
 10
620.12754976231
 20
2220.394448443775
 30
0.0
 11
501.8700388466132
 21
2184.917195169077
 31
0.0
  0
LINE
  5
68BC
330
1F
100
AcDbEntity
  8
ﾏﾙｴｽｼﾝｸﾞﾙ
370
     5
100
AcDbLine
 10
501.8700388466132
 20
2184.917195169077
 30
0.0
 11
498.7571034196434
 21
2186.593391168214
 31
0.0
  0
LINE
  5
68BD
330
1F
100
AcDbEntity
  8
ﾏﾙｴｽｼﾝｸﾞﾙ
370
     5
100
AcDbLine
 10
502.1435307270376
 20
2187.609319360432
 30
0.0
 11
499.0305953000679
 21
2189.285515359569
 31
0.0
  0
LINE
  5
68BE
330
1F
100
AcDbEntity
  8
ﾏﾙｴｽｼﾝｸﾞﾙ
370
     5
100
AcDbLine
 10
448.9161012790336
 20
2171.641090525996
 30
0.0
 11
448.1977315651183
 21
2174.03565623905
 31
0.0
  0
LINE
  5
68BF
330
1F
100
AcDbEntity
  8
ﾏﾙｴｽｼﾝｸﾞﾙ
370
     5
100
AcDbLine
 10
448.1977315651083
 20
2174.035656239086
 30
0.0
 11
499.0305953000679
 21
2189.285515359569
 31
0.0
  0
LINE
  5
68C0
330
1F
100
AcDbEntity
  8
ﾏﾙｴｽｼﾝｸﾞﾙ
370
     5
100
AcDbLine
 10
620.4010416427336
 20
2223.086572635129
 30
0.0
 11
502.1435307270376
 21
2187.609319360432
 31
0.0
  0
LINE
  5
68C1
330
1F
100
AcDbEntity
  8
ﾏﾙｴｽｼﾝｸﾞﾙ
370
     5
100
AcDbLine
 10
498.7571034196434
 20
2186.593391168214
 30
0.0
 11
448.9161012790236
 21
2171.641090526033
 31
0.0
  0
LINE
  5
68C2
330
1F
100
AcDbEntity
  8
ﾏﾙｴｽｼﾝｸﾞﾙ
370
     5
100
AcDbLine
 10
623.2404851892779
 20
2218.718252444637
 30
0.0
 11
620.12754976231
 21
2220.394448443775
 31
0.0
  0
LINE
  5
68C3
330
1F
100
AcDbEntity
  8
ﾏﾙｴｽｼﾝｸﾞﾙ
370
     5
100
AcDbLine
 10
623.5139770697023
 20
2221.410376635992
 30
0.0
 11
620.4010416427336
 21
2223.086572635129
 31
0.0
  0
LINE
  5
68C4
330
1F
100
AcDbEntity
  8
ﾏﾙｴｽｼﾝｸﾞﾙ
370
     5
100
AcDbLine
 10
671.3143502628818
 20
2235.750488593941
 30
0.0
 11
623.5139770697023
 21
2221.410376635992
 31
0.0
  0
LINE
  5
68C5
330
1F
100
AcDbEntity
  8
ﾏﾙｴｽｼﾝｸﾞﾙ
370
     5
100
AcDbLine
 10
570.5600395021138
 20
2208.134271992948
 30
0.0
 11
620.4010416427336
 21
2223.086572635129
 31
0.0
  0
LINE
  5
68C6
330
1F
100
AcDbEntity
  8
ﾏﾙｴｽｼﾝｸﾞﾙ
370
     5
100
AcDbLine
 10
671.3143502628818
 20
2235.750488593942
 30
0.0
 11
623.5139770697023
 21
2221.410376635992
 31
0.0
  0
LINE
  5
68C7
330
1F
100
AcDbEntity
  8
ﾏﾙｴｽｼﾝｸﾞﾙ
370
     5
100
AcDbLine
 10
623.5139770697023
 20
2221.410376635992
 30
0.0
 11
620.4010416427336
 21
2223.086572635129
 31
0.0
  0
LINE
  5
68C8
330
1F
100
AcDbEntity
  8
ﾏﾙｴｽｼﾝｸﾞﾙ
370
     5
100
AcDbLine
 10
620.4010416427336
 20
2223.086572635129
 30
0.0
 11
570.5600395021138
 21
2208.134271992948
 31
0.0
  0
LINE
  5
68C9
330
1F
100
AcDbEntity
  8
躯体
370
     5
100
AcDbLine
 10
296.0413854993248
 20
2118.992476561345
 30
0.0
 11
867.4154261567737
 21
2290.404688758526
 31
0.0
  0
TEXT
  5
68CA
102
{ACAD_XDICTIONARY
360
68CB
102
}
330
1F
100
AcDbEntity
  8
文字
370
     5
100
AcDbText
 10
334.3632873303886
 20
2381.677005135782
 30
0.0
 40
20.0
  1
マルエスシングル
  7
NS横文字
100
AcDbText
1001
AcadAnnotative
1000
AnnotativeData
1002
{
1070
     1
1070
     1
1002
}
  0
TEXT
  5
68CF
102
{ACAD_XDICTIONARY
360
68D0
102
}
330
1F
100
AcDbEntity
  8
文字
370
     5
100
AcDbText
 10
373.0525507841758
 20
2345.852005262561
 30
0.0
 40
20.0
  1
カスタムベース
  7
NS横文字
100
AcDbText
1001
AcadAnnotative
1000
AnnotativeData
1002
{
1070
     1
1070
     1
1002
}
  0
LINE
  5
68D4
330
1F
100
AcDbEntity
  8
文字
370
     5
100
AcDbLine
 10
661.0882805315887
 20
2229.296175581037
 30
0.0
 11
567.0773175228624
 21
2392.12793998063
 31
0.0
  0
LINE
  5
68D5
330
1F
100
AcDbEntity
  8
文字
370
     5
100
AcDbLine
 10
567.0773175228624
 20
2392.12793998063
 30
0.0
 11
547.0773175228623
 21
2392.12793998063
 31
0.0
  0
LINE
  5
68D6
330
1F
100
AcDbEntity
  8
文字
370
     5
100
AcDbLine
 10
587.0773175228623
 20
2357.486923829252
 30
0.0
 11
567.0773175228624
 21
2357.486923829252
 31
0.0
  0
LINE
  5
68D7
330
1F
100
AcDbEntity
  8
文字
370
     5
100
AcDbLine
 10
861.3146402563724
 20
2478.686045857042
 30
0.0
 11
812.1523533618274
 21
2563.837624574672
 31
0.0
  0
LINE
  5
68D8
330
1F
100
AcDbEntity
  8
文字
370
     5
100
AcDbLine
 10
812.1523533618274
 20
2563.837624574672
 30
0.0
 11
792.1523533618274
 21
2563.837624574672
 31
0.0
  0
LINE
  5
68D9
330
1F
100
AcDbEntity
  8
文字
370
     5
100
AcDbLine
 10
857.8914701227823
 20
2444.800320721161
 30
0.0
 11
813.7846602132094
 21
2521.195556444324
 31
0.0
  0
LINE
  5
68DA
330
1F
100
AcDbEntity
  8
文字
370
     5
100
AcDbLine
 10
813.7846602132094
 20
2521.195556444324
 30
0.0
 11
793.7846602132094
 21
2521.195556444324
 31
0.0
  0
LINE
  5
68DB
330
1F
100
AcDbEntity
  8
文字
370
     5
100
AcDbLine
 10
857.6912870848017
 20
2433.707600158448
 30
0.0
 11
806.9004649076733
 21
2489.221168283735
 31
0.0
  0
TEXT
  5
68DC
102
{ACAD_XDICTIONARY
360
68DD
102
}
330
1F
100
AcDbEntity
  8
文字
370
     5
100
AcDbText
 10
647.7816406826859
 20
2554.104819027972
 30
0.0
 40
20.0
  1
ＭＣ-５５Ｓ
  7
NS横文字
100
AcDbText
1001
AcadAnnotative
1000
AnnotativeData
1002
{
1070
     1
1070
     1
1002
}
  0
TEXT
  5
68E1
102
{ACAD_XDICTIONARY
360
68E2
102
}
330
1F
100
AcDbEntity
  8
文字
370
     5
100
AcDbText
 10
531.8919991459797
 20
2509.427497424334
 30
0.0
 40
20.0
  1
カスタムコーチングＳ
  7
NS横文字
100
AcDbText
1001
AcadAnnotative
1000
AnnotativeData
1002
{
1070
     1
1070
     1
1002
}
  0
TEXT
  5
68E6
102
{ACAD_XDICTIONARY
360
68E7
102
}
330
1F
100
AcDbEntity
  8
文字
370
     5
100
AcDbText
 10
672.1014562570017
 20
2476.074290397646
 30
0.0
 40
20.0
  1
押え金物
  7
NS横文字
100
AcDbText
1001
AcadAnnotative
1000
AnnotativeData
1002
{
1070
     1
1070
     1
1002
}
  0
LINE
  5
68EB
330
1F
100
AcDbEntity
  8
文字
370
     5
100
AcDbLine
 10
806.9004649076733
 20
2489.221168283735
 30
0.0
 11
786.9004649076733
 21
2489.221168283735
 31
0.0
  0
LINE
  5
68EC
330
1F
100
AcDbEntity
  8
ﾊｯﾁ
370
     5
100
AcDbLine
 10
523.8934090356806
 20
2051.624099006361
 30
0.0
 11
717.7848156297504
 21
2245.515505600433
 31
0.0
  0
LINE
  5
68ED
330
1F
100
AcDbEntity
  8
ﾊｯﾁ
370
     5
100
AcDbLine
 10
867.4154261567737
 20
2395.146116127458
 30
0.0
 11
997.4154261567727
 21
2525.14611612746
 31
0.0
  0
LINE
  5
68EE
330
1F
100
AcDbEntity
  8
ﾊｯﾁ
370
     5
100
AcDbLine
 10
533.9949344812039
 20
2054.654556640018
 30
0.0
 11
727.8863410752665
 21
2248.545963234088
 31
0.0
  0
LINE
  5
68EF
330
1F
100
AcDbEntity
  8
ﾊｯﾁ
370
     5
100
AcDbLine
 10
867.4154261567728
 20
2388.075048315598
 30
0.0
 11
997.4154261567727
 21
2518.075048315602
 31
0.0
  0
LINE
  5
68F0
330
1F
100
AcDbEntity
  8
ﾊｯﾁ
370
     5
100
AcDbLine
 10
544.0964599267263
 20
2057.685014273675
 30
0.0
 11
737.9878665207916
 21
2251.576420867744
 31
0.0
  0
LINE
  5
68F1
330
1F
100
AcDbEntity
  8
ﾊｯﾁ
370
     5
100
AcDbLine
 10
867.4154261567728
 20
2381.003980503727
 30
0.0
 11
997.4154261567727
 21
2511.003980503729
 31
0.0
  0
LINE
  5
68F2
330
1F
100
AcDbEntity
  8
ﾊｯﾁ
370
     5
100
AcDbLine
 10
809.6076947499678
 20
2137.338384720647
 30
0.0
 11
997.4154261567727
 21
2325.146116127465
 31
0.0
  0
LINE
  5
68F3
330
1F
100
AcDbEntity
  8
ﾊｯﾁ
370
     5
100
AcDbLine
 10
819.7092201954847
 20
2140.368842354303
 30
0.0
 11
997.4154261567736
 21
2318.075048315593
 31
0.0
  0
LINE
  5
68F4
330
1F
100
AcDbEntity
  8
ﾊｯﾁ
370
     5
100
AcDbLine
 10
829.8107456410098
 20
2143.39929998796
 30
0.0
 11
997.4154261567736
 21
2311.003980503726
 31
0.0
  0
LINE
  5
68F5
330
1F
100
AcDbEntity
  8
ﾊｯﾁ
370
     5
100
AcDbLine
 10
296.0413854993376
 20
2023.772075470018
 30
0.0
 11
432.070529915506
 21
2159.801219886187
 31
0.0
  0
LINE
  5
68F6
330
1F
100
AcDbEntity
  8
ﾊｯﾁ
370
     5
100
AcDbLine
 10
296.0413854993376
 20
2016.701007658152
 30
0.0
 11
442.1720553610239
 21
2162.831677519841
 31
0.0
  0
LINE
  5
68F7
330
1F
100
AcDbEntity
  8
ﾊｯﾁ
370
     5
100
AcDbLine
 10
857.4154261567738
 20
2578.0750483156
 30
0.0
 11
904.4864939686403
 21
2625.146116127468
 31
0.0
  0
LINE
  5
68F8
330
1F
100
AcDbEntity
  8
ﾊｯﾁ
370
     5
100
AcDbLine
 10
857.4154261567727
 20
2585.146116127466
 30
0.0
 11
897.4154261567745
 21
2625.146116127468
 31
0.0
  0
LINE
  5
68F9
330
1F
100
AcDbEntity
  8
ﾊｯﾁ
370
     5
100
AcDbLine
 10
857.4154261567727
 20
2571.003980503736
 30
0.0
 11
911.5575617805061
 21
2625.146116127469
 31
0.0
  0
LINE
  5
68FA
330
1F
100
AcDbEntity
  8
ﾊｯﾁ
370
     5
100
AcDbLine
 10
296.0413854993385
 20
2009.629939846286
 30
0.0
 11
452.2735808065454
 21
2165.862135153497
 31
0.0
  0
LWPOLYLINE
  5
68FB
330
1F
100
AcDbEntity
  8
文字
370
     5
100
AcDbPolyline
 90
        2
 70
     1
 43
0.75
 10
660.7132805315886
 20
2229.296175581037
 42
1.0
 10
661.4632805315887
 20
2229.296175581037
 42
1.0
  0
LWPOLYLINE
  5
68FC
330
1F
100
AcDbEntity
  8
文字
370
     5
100
AcDbPolyline
 90
        2
 70
     1
 43
0.75
 10
658.356047649142
 20
2233.379022698705
 42
1.0
 10
659.1060476491421
 20
2233.379022698705
 42
1.0
  0
LINE
  5
68FD
330
1F
100
AcDbEntity
  8
枠
  6
ByBlock
370
     5
100
AcDbLine
 10
3561.497292069689
 20
140.6947890549782
 30
0.0
 11
3561.497292069689
 21
0.0
 31
0.0
  0
MTEXT
  5
68FE
102
{ACAD_XDICTIONARY
360
68FF
102
}
330
1F
100
AcDbEntity
  8
枠
  6
ByBlock
370
     5
100
AcDbMText
 10
3581.817420322252
 20
129.5610498253518
 30
0.0
 40
19.44444444375
 41
462.1393032128266
 46
0.0
 71
     1
 72
     5
  1
{\fMS Gothic|b0|i0|c128|p49;マルエスシングル}
  7
NS横文字
 73
     1
 44
1.0
1001
ACAD
1000
ACAD_MTEXT_DEFINED_HEIGHT_BEGIN
1070
    46
1040
0.0
1000
ACAD_MTEXT_DEFINED_HEIGHT_END
1001
AcadAnnotative
1000
AnnotativeData
1002
{
1070
     1
1070
     1
1002
}
  0
MTEXT
  5
6908
102
{ACAD_XDICTIONARY
360
6909
102
}
330
1F
100
AcDbEntity
  8
枠
  6
ByBlock
370
     5
100
AcDbMText
 10
3569.313669239412
 20
41.88099091199546
 30
0.0
 40
8.749999999687499
 41
129.9636364640969
 46
0.0
 71
     1
 72
     5
  1
{\fMS Gothic|b0|i0|c128|p49;更新日}
  7
NS横文字
 73
     1
 44
1.0
1001
ACAD
1000
ACAD_MTEXT_DEFINED_HEIGHT_BEGIN
1070
    46
1040
0.0
1000
ACAD_MTEXT_DEFINED_HEIGHT_END
1001
AcadAnnotative
1000
AnnotativeData
1002
{
1070
     1
1070
     1
1002
}
  0
MTEXT
  5
690D
102
{ACAD_XDICTIONARY
360
690E
102
}
330
1F
100
AcDbEntity
  8
枠
  6
ByBlock
370
     5
100
AcDbMText
 10
3581.817420322252
 20
82.66278680701361
 30
0.0
 40
19.44444444375
 41
365.8938361970663
 46
0.0
 71
     1
 72
     5
  1
{\fMS Gothic|b0|i0|c128|p49;立　上　り}
  7
NS横文字
 73
     1
 44
1.0
1001
ACAD
1000
ACAD_MTEXT_DEFINED_HEIGHT_BEGIN
1070
    46
1040
0.0
1000
ACAD_MTEXT_DEFINED_HEIGHT_END
1001
AcadAnnotative
1000
AnnotativeData
1002
{
1070
     1
1070
     1
1002
}
  0
LINE
  5
6912
330
1F
100
AcDbEntity
  8
水切り金物
370
     5
100
AcDbLine
 10
858.9154261567719
 20
2478.654479238787
 30
0.0
 11
858.9154261567719
 21
2480.654479238787
 31
0.0
  0
LINE
  5
6913
330
1F
100
AcDbEntity
  8
水切り金物
370
     5
100
AcDbLine
 10
859.6347511617549
 20
2478.654479238787
 30
0.0
 11
858.9154261567719
 21
2478.654479238787
 31
0.0
  0
LINE
  5
6914
330
1F
100
AcDbEntity
  8
水切り金物
370
     5
100
AcDbLine
 10
859.6347511617549
 20
2478.654479238787
 30
0.0
 11
859.6347511617569
 21
2458.654479238787
 31
0.0
  0
LINE
  5
6915
330
1F
100
AcDbEntity
  8
水切り金物
370
     5
100
AcDbLine
 10
861.6347511617551
 20
2479.103116382709
 30
0.0
 11
861.634751161756
 21
2464.448174825077
 31
0.0
  0
LINE
  5
6916
330
1F
100
AcDbEntity
  8
水切り金物
370
     5
100
AcDbLine
 10
861.634751161756
 20
2462.448174825077
 30
0.0
 11
861.6347511617568
 21
2457.629725114738
 31
0.0
  0
ARC
  5
6917
330
1F
100
AcDbEntity
  8
水切り金物
370
     5
100
AcDbCircle
 10
827.1347309656039
 20
2441.331036896059
 30
0.0
 40
4.0
100
AcDbArc
 50
104.7435553418522
 51
180.0
  0
ARC
  5
6918
330
1F
100
AcDbEntity
  8
水切り金物
370
     5
100
AcDbCircle
 10
857.6347511617559
 20
2457.629725114737
 30
0.0
 40
4.0
100
AcDbArc
 50
284.7435553418522
 51
0.0
  0
LINE
  5
6919
330
1F
100
AcDbEntity
  8
水切り金物
370
     5
100
AcDbLine
 10
856.6527238528824
 20
2454.786180956581
 30
0.0
 11
821.634730965604
 21
2445.570924568177
 31
0.0
  0
LINE
  5
691A
330
1F
100
AcDbEntity
  8
水切り金物
370
     5
100
AcDbLine
 10
858.6527238528825
 20
2453.761426832533
 30
0.0
 11
826.1167582744755
 21
2445.199335178266
 31
0.0
  0
LINE
  5
691B
330
1F
100
AcDbEntity
  8
水切り金物
370
     5
100
AcDbLine
 10
821.634730965604
 20
2365.570924568177
 30
0.0
 11
823.6347309656039
 21
2365.570924568177
 31
0.0
  0
LINE
  5
691C
330
1F
100
AcDbEntity
  8
水切り金物
370
     5
100
AcDbLine
 10
825.1347309655985
 20
2367.070919855742
 30
0.0
 11
825.1347309655985
 21
2371.070917836126
 31
0.0
  0
LINE
  5
691D
330
1F
100
AcDbEntity
  8
水切り金物
370
     5
100
AcDbLine
 10
826.6347309655984
 20
2365.570917836127
 30
0.0
 11
826.6347309655984
 21
2371.070917836126
 31
0.0
  0
LINE
  5
691E
330
1F
100
AcDbEntity
  8
水切り金物
370
     5
100
AcDbLine
 10
825.1347309655985
 20
2371.070917836126
 30
0.0
 11
826.6347309655984
 21
2371.070917836126
 31
0.0
  0
LINE
  5
691F
330
1F
100
AcDbEntity
  8
水切り金物
370
     5
100
AcDbLine
 10
821.634730965604
 20
2365.570924568177
 30
0.0
 11
826.6347309655984
 21
2365.570917836127
 31
0.0
  0
LINE
  5
6920
330
1F
100
AcDbEntity
  8
水切り金物
370
     5
100
AcDbLine
 10
823.1347309656021
 20
2367.070922548562
 30
0.0
 11
825.1347309655985
 21
2367.070919855742
 31
0.0
  0
LINE
  5
6921
330
1F
100
AcDbEntity
  8
水切り金物
370
     5
100
AcDbLine
 10
821.634730965604
 20
2445.570924568177
 30
0.0
 11
821.634730965604
 21
2365.570924568177
 31
0.0
  0
LINE
  5
6922
330
1F
100
AcDbEntity
  8
水切り金物
370
     5
100
AcDbLine
 10
821.634730965604
 20
2445.570924568177
 30
0.0
 11
821.634730965604
 21
2365.570924568177
 31
0.0
  0
LINE
  5
6923
330
1F
100
AcDbEntity
  8
水切り金物
370
     5
100
AcDbLine
 10
823.1347309656021
 20
2441.331036896059
 30
0.0
 11
823.1347309656021
 21
2367.070922548562
 31
0.0
  0
ARC
  5
6924
330
1F
100
AcDbEntity
  8
水切り金物
370
     5
100
AcDbCircle
 10
855.6347511617559
 20
2458.654479238787
 30
0.0
 40
4.0
100
AcDbArc
 50
284.7435553418522
 51
0.0
  0
LINE
  5
6925
330
1F
100
AcDbEntity
  8
水切り金物
370
     5
100
AcDbLine
 10
858.9154261567719
 20
2480.654479238787
 30
0.0
 11
864.9154261567719
 21
2481.712441123038
 31
0.0
  0
LINE
  5
6926
330
1F
100
AcDbEntity
  8
水切り金物
370
     5
100
AcDbLine
 10
861.6347511617551
 20
2479.103116382709
 30
0.0
 11
862.9154261567718
 21
2479.328933937849
 31
0.0
  0
LINE
  5
6927
330
1F
100
AcDbEntity
  8
水切り金物
370
     5
100
AcDbLine
 10
861.6347511617568
 20
2462.448174825077
 30
0.0
 11
862.9154261567718
 21
2462.448174825077
 31
0.0
  0
LINE
  5
6928
330
1F
100
AcDbEntity
  8
水切り金物
370
     5
100
AcDbLine
 10
861.6347511617568
 20
2464.448174825077
 30
0.0
 11
862.9154261567718
 21
2464.448174825077
 31
0.0
  0
LINE
  5
6929
330
1F
100
AcDbEntity
  8
水切り金物
370
     5
100
AcDbLine
 10
862.9154261567718
 20
2462.448174825077
 30
0.0
 11
862.9154261567718
 21
2458.797643509066
 31
0.0
  0
LINE
  5
692A
330
1F
100
AcDbEntity
  8
水切り金物
370
     5
100
AcDbLine
 10
862.9154261567718
 20
2458.797643509066
 30
0.0
 11
864.9154261567719
 21
2458.797643509066
 31
0.0
  0
LINE
  5
692B
330
1F
100
AcDbEntity
  8
水切り金物
370
     5
100
AcDbLine
 10
864.9154261567719
 20
2477.371559698088
 30
0.0
 11
864.9154261567719
 21
2481.682931496921
 31
0.0
  0
HATCH
  5
692C
330
1F
100
AcDbEntity
  8
ｶｽﾀﾑｺｰﾁﾝｸﾞS
370
     5
100
AcDbHatch
 10
0.0
 20
0.0
 30
0.0
210
0.0
220
0.0
230
1.0
  2
ANSI31
 70
     0
 71
     0
 91
        1
 92
        7
 72
     1
 73
     1
 93
       20
 10
867.415426156772
 20
2484.904488814807
 42
0.0
 10
866.4852207279782
 20
2484.904488814807
 42
0.0
 10
861.8363579022025
 20
2483.212441123038
 42
0.0
 10
861.8363579022025
 20
2482.212441123038
 42
0.0
 10
864.9154261567719
 20
2482.212441123038
 42
-0.4142135623730951
 10
865.4154261567718
 20
2481.712441123038
 42
0.0
 10
865.4154261567718
 20
2477.371559698088
 42
-0.4142135623730951
 10
864.9154261567719
 20
2476.871559698088
 42
0.0
 10
863.3817338149274
 20
2476.871559698088
 42
-0.2216946626430569
 10
862.615689371808
 20
2477.228772088401
 42
0.0
 10
862.1988734317937
 20
2477.725513982362
 42
0.7002075382096704
 10
861.8456645431706
 20
2477.596956460426
 42
0.0
 10
861.8456645431715
 20
2465.045035763515
 42
0.7002075382099127
 10
862.1988734317946
 20
2464.916478241578
 42
0.0
 10
862.6156893718089
 20
2465.413220135538
 42
-0.221694662642702
 10
863.3817338149274
 20
2465.770432525851
 42
0.0
 10
864.9154261567719
 20
2465.770432525851
 42
-0.4142135623730953
 10
865.4154261567718
 20
2465.270432525851
 42
0.0
 10
865.4154261567718
 20
2457.579532113958
 42
0.0
 10
867.415426156772
 20
2457.579532113958
 42
0.0
 97
        0
 75
     1
 76
     1
 52
0.0
 41
0.5
 77
     0
 78
     1
 53
45.0
 43
-5958.082719645845
 44
-226.9607643475447
 45
-1.122532015133643
 46
1.122532015133644
 79
     0
 47
0.0821301050468781
 98
        1
 10
864.1654663350754
 20
2473.120976125934
1001
GradientColor1ACI
1070
     5
1001
GradientColor2ACI
1070
     2
1001
ACAD
1010
0.0
1020
0.0
1030
0.0
  0
LINE
  5
692D
330
1F
100
AcDbEntity
  8
ｶｽﾀﾑｺｰﾁﾝｸﾞS
370
     5
100
AcDbLine
 10
865.4154261567718
 20
2477.371559698088
 30
0.0
 11
865.4154261567718
 21
2481.712441123038
 31
0.0
  0
LINE
  5
692E
330
1F
100
AcDbEntity
  8
水切り金物
370
     5
100
AcDbLine
 10
862.9154261567718
 20
2477.371559698088
 30
0.0
 11
862.9154261567718
 21
2479.328933937849
 31
0.0
  0
LINE
  5
692F
330
1F
100
AcDbEntity
  8
水切り金物
370
     5
100
AcDbLine
 10
864.9154261567719
 20
2481.712441123038
 30
0.0
 11
864.9154261567719
 21
2479.946920490502
 31
0.0
  0
LINE
  5
6930
330
1F
100
AcDbEntity
  8
水切り金物
370
     5
100
AcDbLine
 10
864.9154261567719
 20
2477.371559698088
 30
0.0
 11
862.9154261567718
 21
2477.371559698088
 31
0.0
  0
LINE
  5
6931
330
1F
100
AcDbEntity
  8
ｶｽﾀﾑｺｰﾁﾝｸﾞS
370
     5
100
AcDbLine
 10
864.9154261567719
 20
2476.871559698088
 30
0.0
 11
863.3817338149274
 21
2476.871559698088
 31
0.0
  0
ARC
  5
6932
330
1F
100
AcDbEntity
  8
ｶｽﾀﾑｺｰﾁﾝｸﾞS
370
     5
100
AcDbCircle
 10
864.9154261567719
 20
2477.371559698088
 30
0.0
 40
0.5
100
AcDbArc
 50
270.0
 51
0.0
  0
LINE
  5
6933
330
1F
100
AcDbEntity
  8
水切り金物
370
     5
100
AcDbLine
 10
862.9154261567718
 20
2465.270432525851
 30
0.0
 11
862.9154261567718
 21
2464.448174825077
 31
0.0
  0
LINE
  5
6934
330
1F
100
AcDbEntity
  8
水切り金物
370
     5
100
AcDbLine
 10
864.9154261567719
 20
2458.797643509066
 30
0.0
 11
864.9154261567719
 21
2465.270432525851
 31
0.0
  0
LINE
  5
6935
330
1F
100
AcDbEntity
  8
ｶｽﾀﾑｺｰﾁﾝｸﾞS
370
     5
100
AcDbLine
 10
865.4154261567718
 20
2457.579532113958
 30
0.0
 11
865.4154261567718
 21
2465.270432525851
 31
0.0
  0
LINE
  5
6936
330
1F
100
AcDbEntity
  8
ｶｽﾀﾑｺｰﾁﾝｸﾞS
370
     5
100
AcDbLine
 10
867.415426156772
 20
2457.579532113958
 30
0.0
 11
867.415426156772
 21
2484.904488814807
 31
0.0
  0
LINE
  5
6937
330
1F
100
AcDbEntity
  8
水切り金物
370
     5
100
AcDbLine
 10
862.9154261567718
 20
2465.270432525851
 30
0.0
 11
864.9154261567719
 21
2465.270432525851
 31
0.0
  0
LINE
  5
6938
330
1F
100
AcDbEntity
  8
ｶｽﾀﾑｺｰﾁﾝｸﾞS
370
     5
100
AcDbLine
 10
863.3817338149274
 20
2465.770432525851
 30
0.0
 11
864.9154261567719
 21
2465.770432525851
 31
0.0
  0
ARC
  5
6939
330
1F
100
AcDbEntity
  8
ｶｽﾀﾑｺｰﾁﾝｸﾞS
370
     5
100
AcDbCircle
 10
864.9154261567719
 20
2465.270432525851
 30
0.0
 40
0.5
100
AcDbArc
 50
0.0
 51
90.0
  0
LINE
  5
693A
330
1F
100
AcDbEntity
  8
水切り金物
370
     5
100
AcDbLine
 10
861.6347505019884
 20
2479.103113425581
 30
0.0
 11
861.6347505019893
 21
2464.448171867948
 31
0.0
  0
LINE
  5
693B
330
1F
100
AcDbEntity
  8
ｶｽﾀﾑｺｰﾁﾝｸﾞS
370
     5
100
AcDbLine
 10
861.8456645431706
 20
2477.596956460426
 30
0.0
 11
861.8456645431715
 21
2465.045035763515
 31
0.0
  0
ARC
  5
693C
330
1F
100
AcDbEntity
  8
ｶｽﾀﾑｺｰﾁﾝｸﾞS
370
     5
100
AcDbCircle
 10
862.0456645431705
 20
2477.596956460426
 30
0.0
 40
0.2
100
AcDbArc
 50
40.00000000003431
 51
180.0
  0
ARC
  5
693D
330
1F
100
AcDbEntity
  8
ｶｽﾀﾑｺｰﾁﾝｸﾞS
370
     5
100
AcDbCircle
 10
862.0456645431714
 20
2465.045035763515
 30
0.0
 40
0.2
100
AcDbArc
 50
180.0
 51
319.9999999999657
  0
LINE
  5
693E
330
1F
100
AcDbEntity
  8
ｶｽﾀﾑｺｰﾁﾝｸﾞS
370
     5
100
AcDbLine
 10
862.615689371808
 20
2477.228772088401
 30
0.0
 11
862.1988734317946
 21
2477.725513982363
 31
0.0
  0
ARC
  5
693F
330
1F
100
AcDbEntity
  8
ｶｽﾀﾑｺｰﾁﾝｸﾞS
370
     5
100
AcDbCircle
 10
863.3817338149274
 20
2477.871559698087
 30
0.0
 40
1.0
100
AcDbArc
 50
220.0000000000343
 51
270.0
  0
LINE
  5
6940
330
1F
100
AcDbEntity
  8
ｶｽﾀﾑｺｰﾁﾝｸﾞS
370
     5
100
AcDbLine
 10
862.615689371808
 20
2465.413220135538
 30
0.0
 11
862.1988734317955
 21
2464.916478241577
 31
0.0
  0
ARC
  5
6941
330
1F
100
AcDbEntity
  8
ｶｽﾀﾑｺｰﾁﾝｸﾞS
370
     5
100
AcDbCircle
 10
863.3817338149274
 20
2464.770432525851
 30
0.0
 40
1.0
100
AcDbArc
 50
90.0
 51
139.9999999999657
  0
LINE
  5
6942
330
1F
100
AcDbEntity
  8
ｶｽﾀﾑｺｰﾁﾝｸﾞS
370
     5
100
AcDbLine
 10
864.9154261567719
 20
2482.212441123038
 30
0.0
 11
861.8363579022025
 21
2482.212441123038
 31
0.0
  0
ARC
  5
6943
330
1F
100
AcDbEntity
  8
ｶｽﾀﾑｺｰﾁﾝｸﾞS
370
     5
100
AcDbCircle
 10
864.9154261567719
 20
2481.712441123038
 30
0.0
 40
0.5
100
AcDbArc
 50
0.0
 51
90.0
  0
LINE
  5
6944
330
1F
100
AcDbEntity
  8
ｶｽﾀﾑｺｰﾁﾝｸﾞS
370
     5
100
AcDbLine
 10
861.8363579022025
 20
2482.212441123038
 30
0.0
 11
861.8363579022025
 21
2483.212441123038
 31
0.0
  0
LINE
  5
6945
330
1F
100
AcDbEntity
  8
ｶｽﾀﾑｺｰﾁﾝｸﾞS
370
     5
100
AcDbLine
 10
861.8363579022025
 20
2483.212441123038
 30
0.0
 11
866.4852207279782
 21
2484.904488814807
 31
0.0
  0
LINE
  5
6946
330
1F
100
AcDbEntity
  8
ｶｽﾀﾑｺｰﾁﾝｸﾞS
370
     5
100
AcDbLine
 10
867.415426156772
 20
2457.579532113958
 30
0.0
 11
865.4154261567718
 21
2457.579532113958
 31
0.0
  0
LINE
  5
6947
330
1F
100
AcDbEntity
  8
ｶｽﾀﾑｺｰﾁﾝｸﾞS
370
     5
100
AcDbLine
 10
867.415426156772
 20
2484.904488814807
 30
0.0
 11
866.4852207279782
 21
2484.904488814807
 31
0.0
  0
LINE
  5
6948
330
1F
100
AcDbEntity
  8
ﾏﾙｴｽｱﾙﾐﾊﾞｰ
  6
Continuous
370
     5
100
AcDbLine
 10
858.678276161755
 20
2466.81901111197
 30
0.0
 11
859.1782861617549
 21
2466.81769111197
 31
0.0
  0
ARC
  5
6949
330
1F
100
AcDbEntity
  8
ﾏﾙｴｽｱﾙﾐﾊﾞｰ
  6
Continuous
370
     5
100
AcDbCircle
 10
859.1795961617554
 20
2467.31771111197
 30
0.0
 40
0.4999999
100
AcDbArc
 50
269.8491820000135
 51
359.8491799999646
  0
ARC
  5
694A
330
1F
100
AcDbEntity
  8
ﾏﾙｴｽｱﾙﾐﾊﾞｰ
  6
Continuous
370
     5
100
AcDbCircle
 10
858.6848561617554
 20
2469.31902111197
 30
0.0
 40
2.5
100
AcDbArc
 50
179.8491799999647
 51
269.8491820000135
  0
LINE
  5
694B
330
1F
100
AcDbEntity
  8
ｶｽﾀﾑﾍﾞｰｽ
370
     5
100
AcDbLine
 10
865.915426176166
 20
2291.520734740681
 30
0.0
 11
295.610363670995
 21
2120.429215989113
 31
0.0
  0
LINE
  5
694C
330
1F
100
AcDbEntity
  8
ﾏﾙｴｽｼﾝｸﾞﾙ
370
     5
100
AcDbLine
 10
865.9154269861591
 20
2321.520734740681
 30
0.0
 11
863.4154269716864
 21
2321.520734740681
 31
0.0
  0
LINE
  5
694D
330
1F
100
AcDbEntity
  8
ﾏﾙｴｽｼﾝｸﾞﾙ
370
     5
100
AcDbLine
 10
863.4154269716864
 20
2324.020734740681
 30
0.0
 11
860.9154270394901
 21
2324.020734740681
 31
0.0
  0
LINE
  5
694E
330
1F
100
AcDbEntity
  8
ﾏﾙｴｽｼﾝｸﾞﾙ
370
     5
100
AcDbLine
 10
620.4010416427327
 20
2223.086572635129
 30
0.0
 11
502.1435307270376
 21
2187.609319360432
 31
0.0
  0
LINE
  5
694F
330
1F
100
AcDbEntity
  8
ﾏﾙｴｽｼﾝｸﾞﾙ
370
     5
100
AcDbLine
 10
623.5139770697023
 20
2221.410376635992
 30
0.0
 11
620.4010416427327
 21
2223.086572635129
 31
0.0
  0
LINE
  5
6950
330
1F
100
AcDbEntity
  8
ﾏﾙｴｽｼﾝｸﾞﾙ
370
     5
100
AcDbLine
 10
741.7714879853993
 20
2256.88762991069
 30
0.0
 11
742.4898576993146
 21
2254.493064197637
 31
0.0
  0
LINE
  5
6951
330
1F
100
AcDbEntity
  8
ﾏﾙｴｽｼﾝｸﾞﾙ
370
     5
100
AcDbLine
 10
741.7714879853993
 20
2256.88762991069
 30
0.0
 11
623.5139770697023
 21
2221.410376635992
 31
0.0
  0
LINE
  5
6952
330
1F
100
AcDbEntity
  8
ﾏﾙｴｽｼﾝｸﾞﾙ
370
     5
100
AcDbLine
 10
570.5600395021129
 20
2208.134271992948
 30
0.0
 11
620.4010416427327
 21
2223.086572635129
 31
0.0
  0
LINE
  5
6953
330
1F
100
AcDbEntity
  8
ﾏﾙｴｽｼﾝｸﾞﾙ
370
     5
100
AcDbLine
 10
741.7714879853993
 20
2256.88762991069
 30
0.0
 11
623.5139770697023
 21
2221.410376635992
 31
0.0
  0
LINE
  5
6954
330
1F
100
AcDbEntity
  8
ﾏﾙｴｽｼﾝｸﾞﾙ
370
     5
100
AcDbLine
 10
623.5139770697023
 20
2221.410376635992
 30
0.0
 11
620.4010416427327
 21
2223.086572635129
 31
0.0
  0
LINE
  5
6955
330
1F
100
AcDbEntity
  8
ﾏﾙｴｽｼﾝｸﾞﾙ
370
     5
100
AcDbLine
 10
623.7874689501268
 20
2224.102500827347
 30
0.0
 11
620.6745335231572
 21
2225.778696826484
 31
0.0
  0
LINE
  5
6956
330
1F
100
AcDbEntity
  8
ﾏﾙｴｽｼﾝｸﾞﾙ
370
     5
100
AcDbLine
 10
570.5600395021228
 20
2208.134271992912
 30
0.0
 11
569.8416697882075
 21
2210.528837705965
 31
0.0
  0
LINE
  5
6957
330
1F
100
AcDbEntity
  8
ﾏﾙｴｽｼﾝｸﾞﾙ
370
     5
100
AcDbLine
 10
569.8416697881976
 20
2210.528837706001
 30
0.0
 11
620.6745335231572
 21
2225.778696826484
 31
0.0
  0
LINE
  5
6958
330
1F
100
AcDbEntity
  8
ﾏﾙｴｽｼﾝｸﾞﾙ
370
     5
100
AcDbLine
 10
742.0449798658228
 20
2259.579754102045
 30
0.0
 11
623.7874689501268
 21
2224.102500827347
 31
0.0
  0
LINE
  5
6959
330
1F
100
AcDbEntity
  8
ﾏﾙｴｽｼﾝｸﾞﾙ
370
     5
100
AcDbLine
 10
620.4010416427327
 20
2223.086572635129
 30
0.0
 11
570.5600395021129
 21
2208.134271992948
 31
0.0
  0
LINE
  5
695A
330
1F
100
AcDbEntity
  8
ﾏﾙｴｽｼﾝｸﾞﾙ
370
     5
100
AcDbLine
 10
744.8844234123671
 20
2255.211433911552
 30
0.0
 11
741.7714879853993
 21
2256.88762991069
 31
0.0
  0
LINE
  5
695B
330
1F
100
AcDbEntity
  8
ﾏﾙｴｽｼﾝｸﾞﾙ
370
     5
100
AcDbLine
 10
745.1579152927916
 20
2257.903558102908
 30
0.0
 11
742.0449798658228
 21
2259.579754102045
 31
0.0
  0
LINE
  5
695C
330
1F
100
AcDbEntity
  8
ﾏﾙｴｽｼﾝｸﾞﾙ
370
     5
100
AcDbLine
 10
692.203977725203
 20
2244.627453459863
 30
0.0
 11
742.0449798658228
 21
2259.579754102045
 31
0.0
  0
LINE
  5
695D
330
1F
100
AcDbEntity
  8
ﾏﾙｴｽｼﾝｸﾞﾙ
370
     5
100
AcDbLine
 10
745.1579152927916
 20
2257.903558102908
 30
0.0
 11
742.0449798658228
 21
2259.579754102045
 31
0.0
  0
LINE
  5
695E
330
1F
100
AcDbEntity
  8
ﾏﾙｴｽｼﾝｸﾞﾙ
370
     5
100
AcDbLine
 10
742.0449798658228
 20
2259.579754102045
 30
0.0
 11
692.203977725203
 21
2244.627453459863
 31
0.0
  0
LINE
  5
695F
330
1F
100
AcDbEntity
  8
ﾏﾙｴｽｼﾝｸﾞﾙ
370
     5
100
AcDbLine
 10
742.0449798658219
 20
2259.579754102044
 30
0.0
 11
623.7874689501268
 21
2224.102500827347
 31
0.0
  0
LINE
  5
6960
330
1F
100
AcDbEntity
  8
ﾏﾙｴｽｼﾝｸﾞﾙ
370
     5
100
AcDbLine
 10
745.1579152927916
 20
2257.903558102908
 30
0.0
 11
742.0449798658219
 21
2259.579754102044
 31
0.0
  0
LINE
  5
6961
330
1F
100
AcDbEntity
  8
ﾏﾙｴｽｼﾝｸﾞﾙ
370
     5
100
AcDbLine
 10
692.203977725202
 20
2244.627453459863
 30
0.0
 11
742.0449798658219
 21
2259.579754102044
 31
0.0
  0
LINE
  5
6962
330
1F
100
AcDbEntity
  8
ﾏﾙｴｽｼﾝｸﾞﾙ
370
     5
100
AcDbLine
 10
836.6523341495058
 20
2285.351883759913
 30
0.0
 11
745.1579152927916
 21
2257.903558102908
 31
0.0
  0
LINE
  5
6963
330
1F
100
AcDbEntity
  8
ﾏﾙｴｽｼﾝｸﾞﾙ
370
     5
100
AcDbLine
 10
745.1579152927916
 20
2257.903558102908
 30
0.0
 11
742.0449798658219
 21
2259.579754102044
 31
0.0
  0
LINE
  5
6964
330
1F
100
AcDbEntity
  8
ﾏﾙｴｽｼﾝｸﾞﾙ
370
     5
100
AcDbLine
 10
745.431407173216
 20
2260.595682294262
 30
0.0
 11
742.3184717462463
 21
2262.271878293399
 31
0.0
  0
LINE
  5
6965
330
1F
100
AcDbEntity
  8
ﾏﾙｴｽｼﾝｸﾞﾙ
370
     5
100
AcDbLine
 10
692.2039777252121
 20
2244.627453459827
 30
0.0
 11
691.4856080112968
 21
2247.02201917288
 31
0.0
  0
LINE
  5
6966
330
1F
100
AcDbEntity
  8
ﾏﾙｴｽｼﾝｸﾞﾙ
370
     5
100
AcDbLine
 10
691.4856080112867
 20
2247.022019172916
 30
0.0
 11
742.3184717462463
 21
2262.271878293399
 31
0.0
  0
LINE
  5
6967
330
1F
100
AcDbEntity
  8
ﾏﾙｴｽｼﾝｸﾞﾙ
370
     5
100
AcDbLine
 10
836.9258260299247
 20
2288.044007951266
 30
0.0
 11
745.431407173216
 21
2260.595682294262
 31
0.0
  0
LINE
  5
6968
330
1F
100
AcDbEntity
  8
ﾏﾙｴｽｼﾝｸﾞﾙ
370
     5
100
AcDbLine
 10
742.0449798658219
 20
2259.579754102044
 30
0.0
 11
692.203977725202
 21
2244.627453459863
 31
0.0
  0
LINE
  5
6969
330
1F
100
AcDbEntity
  8
ﾏﾙｴｽｼﾝｸﾞﾙ
370
     5
100
AcDbLine
 10
836.6523341495058
 20
2285.351883759913
 30
0.0
 11
837.3707038634211
 21
2282.957318046861
 31
0.0
  0
LINE
  5
696A
330
1F
100
AcDbEntity
  8
ﾏﾙｴｽｼﾝｸﾞﾙ
370
     5
100
AcDbLine
 10
839.7652695764746
 20
2283.675687760772
 30
0.0
 11
836.6523341495067
 21
2285.351883759909
 31
0.0
  0
LINE
  5
696B
330
1F
100
AcDbEntity
  8
ﾏﾙｴｽｼﾝｸﾞﾙ
370
     5
100
AcDbLine
 10
840.0387614568989
 20
2286.367811952127
 30
0.0
 11
836.9258260299302
 21
2288.044007951264
 31
0.0
  0
LINE
  5
696C
330
1F
100
AcDbEntity
  8
ﾏﾙｴｽｼﾝｸﾞﾙ
370
     5
100
AcDbLine
 10
840.0387614568989
 20
2286.367811952127
 30
0.0
 11
836.9258260299302
 21
2288.044007951264
 31
0.0
  0
LINE
  5
696D
330
1F
100
AcDbEntity
  8
ﾏﾙｴｽｼﾝｸﾞﾙ
370
     5
100
AcDbLine
 10
840.0387614568989
 20
2286.367811952127
 30
0.0
 11
836.9258260299293
 21
2288.044007951264
 31
0.0
  0
LINE
  5
696E
330
1F
100
AcDbEntity
  8
ﾏﾙｴｽｼﾝｸﾞﾙ
370
     5
100
AcDbLine
 10
840.0387614568989
 20
2286.367811952127
 30
0.0
 11
836.9258260299247
 21
2288.044007951266
 31
0.0
  0
LINE
  5
696F
330
1F
100
AcDbEntity
  8
ﾏﾙｴｽｼﾝｸﾞﾙ
370
     5
100
AcDbLine
 10
840.0387614568989
 20
2286.367811952127
 30
0.0
 11
863.4154262084885
 21
2293.380811377605
 31
0.0
  0
LINE
  5
6970
330
1F
100
AcDbEntity
  8
ﾏﾙｴｽｼﾝｸﾞﾙ
370
     5
100
AcDbLine
 10
840.3122533373226
 20
2289.059936143485
 30
0.0
 11
837.1993179103528
 21
2290.736132142622
 31
0.0
  0
LINE
  5
6971
330
1F
100
AcDbEntity
  8
ﾏﾙｴｽｼﾝｸﾞﾙ
370
     5
100
AcDbLine
 10
787.0848238893186
 20
2273.09170730905
 30
0.0
 11
786.3664541754033
 21
2275.486273022103
 31
0.0
  0
LINE
  5
6972
330
1F
100
AcDbEntity
  8
ﾏﾙｴｽｼﾝｸﾞﾙ
370
     5
100
AcDbLine
 10
786.3664541753933
 20
2275.486273022139
 30
0.0
 11
837.1993179103528
 21
2290.736132142622
 31
0.0
  0
LINE
  5
6973
330
1F
100
AcDbEntity
  8
ﾏﾙｴｽｼﾝｸﾞﾙ
370
     5
100
AcDbLine
 10
840.3122533373226
 20
2289.059936143485
 30
0.0
 11
860.9154262589363
 21
2295.240888019971
 31
0.0
  0
LINE
  5
6974
330
1F
100
AcDbEntity
  8
ﾏﾙｴｽｼﾝｸﾞﾙ
370
     5
100
AcDbLine
 10
863.4154269716864
 20
2324.020734740681
 30
0.0
 11
863.4154261049671
 21
2440.404688780868
 31
0.0
  0
LINE
  5
6975
330
1F
100
AcDbEntity
  8
ﾏﾙｴｽｼﾝｸﾞﾙ
370
     5
100
AcDbLine
 10
840.5857452177507
 20
2291.752060334841
 30
0.0
 11
837.4728097907809
 21
2293.428256333978
 31
0.0
  0
LINE
  5
6976
330
1F
100
AcDbEntity
  8
ﾏﾙｴｽｼﾝｸﾞﾙ
370
     5
100
AcDbLine
 10
825.5228504564929
 20
2287.233191906466
 30
0.0
 11
824.8044807425776
 21
2289.627757619518
 31
0.0
  0
LINE
  5
6977
330
1F
100
AcDbEntity
  8
ﾏﾙｴｽｼﾝｸﾞﾙ
370
     5
100
AcDbLine
 10
824.8044807425776
 20
2289.627757619518
 30
0.0
 11
837.4728097907809
 21
2293.428256333978
 31
0.0
  0
LINE
  5
6978
330
1F
100
AcDbEntity
  8
ﾏﾙｴｽｼﾝｸﾞﾙ
370
     5
100
AcDbLine
 10
840.5857452177507
 20
2291.752060334841
 30
0.0
 11
858.4154263093841
 21
2297.100964662333
 31
0.0
  0
LINE
  5
6979
330
1F
100
AcDbEntity
  8
ﾏﾙｴｽｼﾝｸﾞﾙ
370
     5
100
AcDbLine
 10
858.4154271072939
 20
2326.520734740681
 30
0.0
 11
858.4154263093841
 21
2297.100964662333
 31
0.0
  0
LINE
  5
697A
330
1F
100
AcDbEntity
  8
ﾏﾙｴｽｼﾝｸﾞﾙ
370
     5
100
AcDbLine
 10
860.9154270394901
 20
2326.520734740681
 30
0.0
 11
858.4154271072939
 21
2326.520734740681
 31
0.0
  0
LINE
  5
697B
330
1F
100
AcDbEntity
  8
ﾏﾙｴｽｼﾝｸﾞﾙ
370
     5
100
AcDbLine
 10
860.9154270394901
 20
2326.520734740681
 30
0.0
 11
860.9154261913882
 21
2440.404688684055
 31
0.0
  0
LINE
  5
697C
330
1F
100
AcDbEntity
  8
ﾏﾙｴｽｼﾝｸﾞﾙ
370
     5
100
AcDbLine
 10
855.9154271750976
 20
2329.020734740681
 30
0.0
 11
855.9154262890434
 21
2296.35096465623
 31
0.0
  0
LINE
  5
697D
330
1F
100
AcDbEntity
  8
ﾏﾙｴｽｼﾝｸﾞﾙ
370
     5
100
AcDbLine
 10
858.4154271072939
 20
2329.020734740681
 30
0.0
 11
855.9154271750976
 21
2329.020734740681
 31
0.0
  0
LINE
  5
697E
330
1F
100
AcDbEntity
  8
ﾏﾙｴｽｼﾝｸﾞﾙ
370
     5
100
AcDbLine
 10
858.4154271072939
 20
2329.020734740681
 30
0.0
 11
858.4154262778101
 21
2440.404688684055
 31
0.0
  0
LINE
  5
697F
330
1F
100
AcDbEntity
  8
ｶｽﾀﾑｺｰﾁﾝｸﾞS
  6
Continuous
370
     5
100
AcDbLine
 10
867.4154301960042
 20
2445.943760752815
 30
0.0
 11
865.4432499190262
 21
2449.760401998456
 31
0.0
  0
LINE
  5
6980
330
1F
100
AcDbEntity
  8
ｶｽﾀﾑｺｰﾁﾝｸﾞS
  6
Continuous
370
     5
100
AcDbLine
 10
867.4154301960053
 20
2445.943760752813
 30
0.0
 11
865.4432499190251
 21
2449.760401998456
 31
0.0
  0
LINE
  5
6981
330
1F
100
AcDbEntity
  8
端末押え金物
370
     5
100
AcDbLine
 10
856.4154263690852
 20
2410.404688684055
 30
0.0
 11
856.4154263690852
 21
2438.404688684055
 31
0.0
  0
MTEXT
  5
6B48
102
{ACAD_XDICTIONARY
360
6B49
102
}
330
1F
100
AcDbEntity
  8
枠
  6
ByBlock
370
     5
100
AcDbMText
 10
3581.446201265706
 20
29.77909667533822
 30
0.0
 40
17.499999999375
 41
251.3548854161736
 46
20.21647881760145
 71
     1
 72
     5
  1
{\fMS Gothic|b0|i0|c128|p49;令和３年１月}
  7
NS横文字
 73
     1
 44
1.0
1001
ACAD
1000
ACAD_MTEXT_DEFINED_HEIGHT_BEGIN
1070
    46
1040
0.0
1000
ACAD_MTEXT_DEFINED_HEIGHT_END
1001
AcadAnnotative
1000
AnnotativeData
1002
{
1070
     1
1070
     1
1002
}
  0
VIEWPORT
  5
34A6
102
{ACAD_XDICTIONARY
360
34A7
102
}
330
349F
100
AcDbEntity
 67
     1
  8
0
100
AcDbViewport
 10
148.500000691507
 20
105.0000004889444
 30
0.0
 40
372.4672499884247
 41
211.7776309742798
 68
     1
 69
     1
 12
148.500000691507
 22
105.0000004889444
 13
0.0
 23
0.0
 14
10.0
 24
10.0
 15
10.0
 25
10.0
 16
0.0
 26
0.0
 36
1.0
 17
0.0
 27
0.0
 37
0.0
 42
50.0
 43
0.0
 44
0.0
 45
211.7776309742798
 50
0.0
 51
0.0
 72
  1000
 90
   557088
  1

281
     0
 71
     1
 74
     0
110
0.0
120
0.0
130
0.0
111
1.0
121
0.0
131
0.0
112
0.0
122
1.0
132
0.0
 79
     0
146
0.0
170
     0
 61
     5
348
F5
292
     1
282
     1
141
0.0
142
0.0
 63
   250
421
  3355443
  0
VIEWPORT
  5
4018
102
{ACAD_XDICTIONARY
360
4019
102
}
330
349F
100
AcDbEntity
 67
     1
  8
0
100
AcDbViewport
 10
148.5
 20
105.0
 30
0.0
 40
297.0
 41
210.0
 68
     2
 69
     2
 12
2025.000009429643
 22
1410.000006565824
 13
0.0
 23
0.0
 14
10.0
 24
10.0
 15
10.0
 25
10.0
 16
0.0
 26
0.0
 36
1.0
 17
0.0
 27
0.0
 37
0.0
 42
50.0
 43
0.0
 44
0.0
 45
2881.020072237207
 50
0.0
 51
0.0
 72
  1000
 90
   819296
  1

281
     0
 71
     1
 74
     0
110
0.0
120
0.0
130
0.0
111
1.0
121
0.0
131
0.0
112
0.0
122
1.0
132
0.0
 79
     0
146
0.0
170
     0
 61
     5
348
F5
292
     1
282
     1
141
0.0
142
0.0
 63
   250
421
  3355443
  0
ENDSEC
  0
SECTION
  2
OBJECTS
  0
DICTIONARY
  5
C
330
0
100
AcDbDictionary
281
     1
  3
ACAD_CIP_PREVIOUS_PRODUCT_INFO
350
216
  3
ACAD_COLOR
350
6B
  3
ACAD_DETAILVIEWSTYLE
350
21B
  3
ACAD_GROUP
350
D
  3
ACAD_LAYOUT
350
1A
  3
ACAD_MATERIAL
350
6A
  3
ACAD_MLEADERSTYLE
350
12D
  3
ACAD_MLINESTYLE
350
17
  3
ACAD_PLOTSETTINGS
350
19
  3
ACAD_PLOTSTYLENAME
350
E
  3
ACAD_SCALELIST
350
10C
  3
ACAD_SECTIONVIEWSTYLE
350
219
  3
ACAD_TABLESTYLE
350
7E
  3
ACAD_VISUALSTYLE
350
EF
  3
ACDB_RECOMPOSE_DATA
350
6C05
  3
AcDbVariableDictionary
350
5E
  0
DICTIONARY
  5
1FF
330
2
100
AcDbDictionary
280
     1
281
     1
  3
ACAD_LAYERSTATES
360
200
  0
DICTIONARY
  5
13C
330
10
100
AcDbDictionary
280
     1
281
     1
  0
DICTIONARY
  5
45A
330
459
100
AcDbDictionary
280
     1
281
     1
  0
DICTIONARY
  5
45E
330
45D
100
AcDbDictionary
280
     1
281
     1
  0
DICTIONARY
  5
472
330
471
100
AcDbDictionary
280
     1
281
     1
  0
DICTIONARY
  5
1855
330
1854
100
AcDbDictionary
280
     1
281
     1
  0
DICTIONARY
  5
1CE
330
1F
100
AcDbDictionary
280
     1
281
     1
  3
ACAD_SORTENTS
360
30F
  0
DICTIONARY
  5
3FE3
330
3FE2
100
AcDbDictionary
280
     1
281
     1
  3
ASDK_XREC_ANNOTATION_SCALE_INFO
360
3FE4
  0
DICTIONARY
  5
4024
330
4023
100
AcDbDictionary
280
     1
281
     1
  3
ASDK_XREC_ANNOTATION_SCALE_INFO
360
4025
  0
DICTIONARY
  5
67F2
330
67F1
100
AcDbDictionary
280
     1
281
     1
  3
AcDbContextDataManager
360
67F3
  0
DICTIONARY
  5
6805
330
6804
100
AcDbDictionary
280
     1
281
     1
  3
AcDbContextDataManager
360
6806
  0
DICTIONARY
  5
68CB
330
68CA
100
AcDbDictionary
280
     1
281
     1
  3
AcDbContextDataManager
360
68CC
  0
DICTIONARY
  5
68D0
330
68CF
100
AcDbDictionary
280
     1
281
     1
  3
AcDbContextDataManager
360
68D1
  0
DICTIONARY
  5
68DD
330
68DC
100
AcDbDictionary
280
     1
281
     1
  3
AcDbContextDataManager
360
68DE
  0
DICTIONARY
  5
68E2
330
68E1
100
AcDbDictionary
280
     1
281
     1
  3
AcDbContextDataManager
360
68E3
  0
DICTIONARY
  5
68E7
330
68E6
100
AcDbDictionary
280
     1
281
     1
  3
AcDbContextDataManager
360
68E8
  0
DICTIONARY
  5
68FF
330
68FE
100
AcDbDictionary
280
     1
281
     1
  3
AcDbContextDataManager
360
6900
  0
DICTIONARY
  5
6909
330
6908
100
AcDbDictionary
280
     1
281
     1
  3
AcDbContextDataManager
360
690A
  0
DICTIONARY
  5
690E
330
690D
100
AcDbDictionary
280
     1
281
     1
  3
AcDbContextDataManager
360
690F
  0
DICTIONARY
  5
6B49
330
6B48
100
AcDbDictionary
280
     1
281
     1
  3
AcDbContextDataManager
360
6B4A
  0
DICTIONARY
  5
34A7
330
34A6
100
AcDbDictionary
280
     1
281
     1
  3
ASDK_XREC_ANNOTATION_SCALE_INFO
360
34A8
  0
DICTIONARY
  5
4019
330
4018
100
AcDbDictionary
280
     1
281
     1
  3
ASDK_XREC_ANNOTATION_SCALE_INFO
360
401A
  0
XRECORD
  5
216
102
{ACAD_REACTORS
330
C
102
}
330
C
100
AcDbXrecord
280
     1
300
ACDLT
300
2021
300

  0
DICTIONARY
  5
6B
102
{ACAD_REACTORS
330
C
102
}
330
C
100
AcDbDictionary
281
     1
  0
DICTIONARY
  5
21B
102
{ACAD_REACTORS
330
C
102
}
330
C
100
AcDbDictionary
281
     1
  3
Imperial24
350
483
  3
Metric50
350
21C
  0
DICTIONARY
  5
D
102
{ACAD_REACTORS
330
C
102
}
330
C
100
AcDbDictionary
281
     1
  0
DICTIONARY
  5
1A
102
{ACAD_REACTORS
330
C
102
}
330
C
100
AcDbDictionary
281
     1
  3
A4　縦
350
3FD5
  3
A4横
350
34A0
  3
Model
350
22
  0
DICTIONARY
  5
6A
102
{ACAD_REACTORS
330
C
102
}
330
C
100
AcDbDictionary
281
     1
  3
ByBlock
350
ED
  3
ByLayer
350
EC
  3
Global
350
EE
  0
DICTIONARY
  5
12D
102
{ACAD_REACTORS
330
C
102
}
330
C
100
AcDbDictionary
281
     1
  3
Annotative
350
13B
  3
NSマルチ引出線
350
371
  3
Standard
350
12E
  3
style1
350
1860
  3
style2
350
481
  0
DICTIONARY
  5
17
102
{ACAD_REACTORS
330
C
102
}
330
C
100
AcDbDictionary
281
     1
  3
Standard
350
18
  0
DICTIONARY
  5
19
102
{ACAD_REACTORS
330
C
102
}
330
C
100
AcDbDictionary
281
     1
  3
A4 縦　モノクロ
350
3FF1
  3
A4　横　モノクロ
350
34EA
  0
ACDBDICTIONARYWDFLT
  5
E
102
{ACAD_REACTORS
330
C
102
}
330
C
100
AcDbDictionary
281
     1
  3
Normal
350
F
100
AcDbDictionaryWithDefault
340
F
  0
DICTIONARY
  5
10C
102
{ACAD_REACTORS
330
C
102
}
330
C
100
AcDbDictionary
281
     1
  3
A0
350
10D
  3
A1
350
1BE
  3
A2
350
1BF
  3
A3
350
1C0
  3
A4
350
1C1
  3
A5
350
1C2
  3
A6
350
1C3
  3
A7
350
1C4
  3
A8
350
1C5
  3
A9
350
1C6
  3
B0
350
1C7
  3
B1
350
1C8
  3
B2
350
1C9
  3
B3
350
1CA
  3
B4
350
1CB
  3
B5
350
1CC
  3
B6
350
1CD
  0
DICTIONARY
  5
219
102
{ACAD_REACTORS
330
C
102
}
330
C
100
AcDbDictionary
281
     1
  3
Imperial24
350
482
  3
Metric50
350
21A
  0
DICTIONARY
  5
7E
102
{ACAD_REACTORS
330
C
102
}
330
C
100
AcDbDictionary
281
     1
  3
Standard
350
7F
  0
DICTIONARY
  5
EF
102
{ACAD_REACTORS
330
C
102
}
330
C
100
AcDbDictionary
281
     1
  3
2dWireframe
350
F5
  3
Basic
350
F4
  3
Brighten
350
FB
  3
ColorChange
350
FF
  3
Conceptual
350
F8
  3
Dim
350
FA
  3
EdgeColorOff
350
1E6
  3
Facepattern
350
FE
  3
Flat
350
F0
  3
FlatWithEdges
350
F1
  3
Gouraud
350
F2
  3
GouraudWithEdges
350
F3
  3
Hidden
350
F7
  3
JitterOff
350
1E4
  3
Linepattern
350
FD
  3
OverhangOff
350
1E5
  3
Realistic
350
F9
  3
Shaded
350
1F3
  3
Shaded with edges
350
1F2
  3
Shades of Gray
350
1EF
  3
Sketchy
350
1F0
  3
Thicken
350
FC
  3
Wireframe
350
F6
  3
X-Ray
350
1F1
  0
XRECORD
  5
6C05
102
{ACAD_REACTORS
330
C
102
}
330
C
100
AcDbXrecord
280
     1
 90
        1
330
7F
  0
DICTIONARY
  5
5E
102
{ACAD_REACTORS
330
C
102
}
330
C
100
AcDbDictionary
281
     1
  3
CANNOSCALE
350
146
  3
CENTEREXE
350
259
  3
CENTERLTYPEFILE
350
25A
  3
CMLEADERSTYLE
350
145
  3
CTABLESTYLE
350
84
  3
CVIEWDETAILSTYLE
350
227
  3
CVIEWSECTIONSTYLE
350
228
  3
DIMASSOC
350
5F
  3
HIDETEXT
350
63
  3
HPCOLOR
350
14E9
  3
HPLAYER
350
2804
  3
HPTRANSPARENCY
350
14E8
  3
INDEXCTL
350
45D8
  3
LAYEREVAL
350
1AE
  3
LAYERNOTIFY
350
1AF
  3
LIGHTINGUNITS
350
45D6
  3
MSLTSCALE
350
45D5
  3
PSOLHEIGHT
350
45DA
  3
PSOLWIDTH
350
45D9
  3
SORTENTS
350
45D7
  3
TEXTJUSTIFY
350
308
  3
XCLIPFRAME
350
45DB
  0
DICTIONARY
  5
200
102
{ACAD_REACTORS
330
1FF
102
}
330
1FF
100
AcDbDictionary
281
     1
  3
_LAYISO_STATE
350
345F
1001
AcLayerTools
1000
22
1000
0
  0
SORTENTSTABLE
  5
30F
102
{ACAD_REACTORS
330
1CE
102
}
330
1CE
100
AcDbSortentsTable
330
1F
331
1A98
  5
1ABA
  0
XRECORD
  5
3FE4
102
{ACAD_REACTORS
330
3FE3
102
}
330
3FE3
100
AcDbXrecord
280
     1
 90
        1
340
10D
  0
XRECORD
  5
4025
102
{ACAD_REACTORS
330
4024
102
}
330
4024
100
AcDbXrecord
280
     1
 90
        1
340
10D
  0
DICTIONARY
  5
67F3
102
{ACAD_REACTORS
330
67F2
102
}
330
67F2
100
AcDbDictionary
281
     1
  3
ACDB_ANNOTATIONSCALES
350
67F4
  0
DICTIONARY
  5
6806
102
{ACAD_REACTORS
330
6805
102
}
330
6805
100
AcDbDictionary
281
     1
  3
ACDB_ANNOTATIONSCALES
350
6807
  0
DICTIONARY
  5
68CC
102
{ACAD_REACTORS
330
68CB
102
}
330
68CB
100
AcDbDictionary
281
     1
  3
ACDB_ANNOTATIONSCALES
350
68CD
  0
DICTIONARY
  5
68D1
102
{ACAD_REACTORS
330
68D0
102
}
330
68D0
100
AcDbDictionary
281
     1
  3
ACDB_ANNOTATIONSCALES
350
68D2
  0
DICTIONARY
  5
68DE
102
{ACAD_REACTORS
330
68DD
102
}
330
68DD
100
AcDbDictionary
281
     1
  3
ACDB_ANNOTATIONSCALES
350
68DF
  0
DICTIONARY
  5
68E3
102
{ACAD_REACTORS
330
68E2
102
}
330
68E2
100
AcDbDictionary
281
     1
  3
ACDB_ANNOTATIONSCALES
350
68E4
  0
DICTIONARY
  5
68E8
102
{ACAD_REACTORS
330
68E7
102
}
330
68E7
100
AcDbDictionary
281
     1
  3
ACDB_ANNOTATIONSCALES
350
68E9
  0
DICTIONARY
  5
6900
102
{ACAD_REACTORS
330
68FF
102
}
330
68FF
100
AcDbDictionary
281
     1
  3
ACDB_ANNOTATIONSCALES
350
6901
  0
DICTIONARY
  5
690A
102
{ACAD_REACTORS
330
6909
102
}
330
6909
100
AcDbDictionary
281
     1
  3
ACDB_ANNOTATIONSCALES
350
690B
  0
DICTIONARY
  5
690F
102
{ACAD_REACTORS
330
690E
102
}
330
690E
100
AcDbDictionary
281
     1
  3
ACDB_ANNOTATIONSCALES
350
6910
  0
DICTIONARY
  5
6B4A
102
{ACAD_REACTORS
330
6B49
102
}
330
6B49
100
AcDbDictionary
281
     1
  3
ACDB_ANNOTATIONSCALES
350
6B4B
  0
XRECORD
  5
34A8
102
{ACAD_REACTORS
330
34A7
102
}
330
34A7
100
AcDbXrecord
280
     1
 90
        1
340
10D
  0
XRECORD
  5
401A
102
{ACAD_REACTORS
330
4019
102
}
330
4019
100
AcDbXrecord
280
     1
 90
        1
340
10D
  0
ACDBDETAILVIEWSTYLE
  5
483
102
{ACAD_REACTORS
330
21B
102
}
330
21B
100
AcDbModelDocViewStyle
 70
     0
  3
Imperial24
290
     0
300
Imperial24
 90
        0
100
AcDbDetailViewStyle
 70
     0
 71
     0
 90
        3
 71
     1
340
11
 62
   256
 40
0.24
340
0
 62
   256
 40
0.24
300

 40
0.36
280
     3
 71
     2
340
16
 90
       25
 62
   256
 71
     3
340
11
 62
   256
 40
0.24
 90
        1
 40
0.75
 90
        1
300
%<\AcVar ViewType \f "%tc1">% %<\AcVar ViewDetailId>%\PSCALE %<\AcVar ViewScale \f "%sn">%
 71
     4
340
16
 90
       25
 62
   256
340
16
 90
       25
 62
   256
280
     0
  0
ACDBDETAILVIEWSTYLE
  5
21C
102
{ACAD_REACTORS
330
21B
102
}
330
21B
100
AcDbModelDocViewStyle
 70
     0
  3
Metric50
290
     0
300
Metric50
 90
        0
100
AcDbDetailViewStyle
 70
     0
 71
     0
 90
        3
 71
     1
340
11
 62
   256
 40
5.0
340
0
 62
   256
 40
5.0
300

 40
0.0
280
     1
 71
     2
340
16
 90
       25
 62
   256
 71
     3
340
11
 62
   256
 40
5.0
 90
        0
 40
15.0
 90
        1
300
%<\AcVar ViewDetailId>% (%<\AcVar ViewScale \f "%sn">%)
 71
     4
340
16
 90
       25
 62
   256
340
16
 90
       25
 62
   256
280
     0
  0
LAYOUT
  5
3FD5
102
{ACAD_REACTORS
330
1A
102
}
330
1A
100
AcDbPlotSettings
  1
A4 縦　モノクロ
  2
AutoCAD PDF (Web and Mobile).pc3
  4
ISO_full_bleed_A4_(210.00_x_297.00_MM)
  6

 40
0.0
 41
0.0
 42
0.0
 43
0.0
 44
210.0
 45
297.0
 46
0.0
 47
0.0
 48
0.0
 49
0.0
140
0.0
141
0.0
142
1.0
143
1.0
 70
   688
 72
     1
 73
     0
 74
     5
  7
monochrome.ctb
 75
    16
147
1.0
 76
     0
 77
     2
 78
   300
148
0.0
149
0.0
100
AcDbLayout
  1
A4　縦
 70
     1
 71
     2
 10
0.0
 20
0.0
 11
210.0
 21
297.0
 12
0.0
 22
0.0
 32
0.0
 14
-0.0079494894836216
 24
-0.0090630292066862
 34
-0.0015258207003583
 15
210.0137120234343
 25
297.0090644122207
 35
0.0000000349246037
146
0.0
 13
0.0
 23
0.0
 33
0.0
 16
1.0
 26
0.0
 36
0.0
 17
0.0
 27
1.0
 37
0.0
 76
     0
330
3FD4
331
3FE2
1001
ACAD_PSEXT
1000
AutoCAD PDF (Web and Mobile).pc3
1000
DWG To PDF
1000
ファイル
1000

1070
     0
  0
LAYOUT
  5
34A0
102
{ACAD_REACTORS
330
1A
102
}
330
1A
100
AcDbPlotSettings
  1
A4　横　モノクロ
  2
AutoCAD PDF (Web and Mobile).pc3
  4
ISO_full_bleed_A4_(297.00_x_210.00_MM)
  6

 40
0.0
 41
0.0
 42
0.0
 43
0.0
 44
297.0
 45
210.0
 46
0.0
 47
0.0
 48
0.0
 49
0.0
140
0.0
141
0.0
142
1.0
143
1.0
 70
   168
 72
     1
 73
     0
 74
     5
  7
monochrome.ctb
 75
    16
147
0.9999999999999998
 76
     2
 77
     2
 78
   300
148
0.0
149
0.0
100
AcDbLayout
  1
A4横
 70
     1
 71
     1
 10
0.0
 20
0.0
 11
297.0
 21
210.0
 12
0.0
 22
0.0
 32
0.0
 14
0.0
 24
0.0
 34
0.0
 15
297.0
 25
210.0
 35
0.0
146
0.0
 13
0.0
 23
0.0
 33
0.0
 16
1.0
 26
0.0
 36
0.0
 17
0.0
 27
1.0
 37
0.0
 76
     0
330
349F
331
34A6
1001
ACAD_PSEXT
1000
AutoCAD PDF (Web and Mobile).pc3
1000
DWG To PDF
1000
ファイル
1000

1070
     0
  0
LAYOUT
  5
22
102
{ACAD_XDICTIONARY
360
205
102
}
102
{ACAD_REACTORS
330
1A
102
}
330
1A
100
AcDbPlotSettings
  1

  2
none_device
  4
ISO_A4_(210.00_x_297.00_MM)
  6

 40
7.5
 41
20.0
 42
7.5
 43
20.0
 44
210.0
 45
297.0
 46
11.54999923706054
 47
-13.65000009536743
 48
0.0
 49
0.0
140
0.0
141
0.0
142
1.0
143
8.704084754739808
 70
 11952
 72
     1
 73
     0
 74
     0
  7

 75
     0
147
0.1148885871608098
 76
     0
 77
     2
 78
   300
148
0.0
149
0.0
100
AcDbLayout
  1
Model
 70
     1
 71
     0
 10
0.0
 20
0.0
 11
12.0
 21
9.0
 12
0.0
 22
0.0
 32
0.0
 14
0.0
 24
0.0
 34
0.0
 15
0.0
 25
0.0
 35
0.0
146
0.0
 13
0.0
 23
0.0
 33
0.0
 16
1.0
 26
0.0
 36
0.0
 17
0.0
 27
1.0
 37
0.0
 76
     0
330
1F
331
EA
1001
ACAD_PSEXT
1000
None
1000
None
1000
Not applicable
1000
The layout will not be plotted unless a new plotter configuration name is selected.
1070
     0
  0
MATERIAL
  5
ED
102
{ACAD_XDICTIONARY
360
1F9
102
}
102
{ACAD_REACTORS
330
6A
102
}
330
6A
100
AcDbMaterial
  1
ByBlock
 94
       63
  0
MATERIAL
  5
EC
102
{ACAD_XDICTIONARY
360
1F7
102
}
102
{ACAD_REACTORS
330
6A
102
}
330
6A
100
AcDbMaterial
  1
ByLayer
 94
       63
  0
MATERIAL
  5
EE
102
{ACAD_XDICTIONARY
360
173
102
}
102
{ACAD_REACTORS
330
6A
102
}
330
6A
100
AcDbMaterial
  1
Global
 43
0.0007999999797903
 43
0.0
 43
0.0
 43
0.0
 43
0.0
 43
0.0007999999797903
 43
0.0
 43
0.0
 43
0.0
 43
0.0
 43
1.0
 43
0.0
 43
0.0
 43
0.0
 43
0.0
 43
1.0
 49
0.0007999999797903
 49
0.0
 49
0.0
 49
0.0
 49
0.0
 49
0.0007999999797903
 49
0.0
 49
0.0
 49
0.0
 49
0.0
 49
1.0
 49
0.0
 49
0.0
 49
0.0
 49
0.0
 49
1.0
142
0.0007999999797903
142
0.0
142
0.0
142
0.0
142
0.0
142
0.0007999999797903
142
0.0
142
0.0
142
0.0
142
0.0
142
1.0
142
0.0
142
0.0
142
0.0
142
0.0
142
1.0
144
0.0007999999797903
144
0.0
144
0.0
144
0.0
144
0.0
144
0.0007999999797903
144
0.0
144
0.0
144
0.0
144
0.0
144
1.0
144
0.0
144
0.0
144
0.0
144
0.0
144
1.0
 94
       63
1001
ACAD
1070
    -1
1070
     3
1070
     0
1000

1071
        0
1070
     0
  0
MLEADERSTYLE
  5
13B
102
{ACAD_REACTORS
330
12D
102
}
330
12D
100
AcDbMLeaderStyle
179
     2
170
     2
171
     1
172
     0
 90
        2
 40
0.0
 41
0.0
173
     1
 91
-1056964608
340
14
 92
       -2
290
     1
 42
2.0
291
     1
 43
8.0
  3
Standard
 44
4.0
300

342
11
174
     1
178
     1
175
     1
176
     0
 93
-1056964608
 45
4.0
292
     0
297
     0
 46
4.0
 94
-1056964608
 47
1.0
 49
1.0
140
1.0
293
     1
141
0.0
294
     1
177
     0
142
1.0
295
     0
296
     1
143
3.75
271
     0
272
     9
273
     9
298
     0
  0
MLEADERSTYLE
  5
371
102
{ACAD_REACTORS
330
12D
102
}
330
12D
100
AcDbMLeaderStyle
179
     2
170
     2
171
     1
172
     0
 90
        2
 40
0.0
 41
0.0
173
     1
 91
-1056964608
340
14
 92
       -2
290
     1
 42
2.0
291
     1
 43
8.0
  3
Standard
341
29F
 44
10.0
300

342
298
174
     1
178
     1
175
     1
176
     0
 93
-1056964608
 45
20.0
292
     0
297
     0
 46
4.0
 94
-1056964608
 47
1.0
 49
1.0
140
1.0
293
     1
141
0.0
294
     1
177
     0
142
1.0
295
     0
296
     1
143
3.75
271
     0
272
     9
273
     9
298
     0
  0
MLEADERSTYLE
  5
12E
102
{ACAD_REACTORS
330
12D
102
}
330
12D
100
AcDbMLeaderStyle
179
     2
170
     2
171
     1
172
     0
 90
        2
 40
0.0
 41
0.0
173
     1
 91
-1056964608
340
14
 92
       -2
290
     1
 42
2.0
291
     1
 43
8.0
  3
Standard
 44
4.0
300

342
11
174
     1
178
     1
175
     1
176
     0
 93
-1056964608
 45
4.0
292
     0
297
     0
 46
4.0
 94
-1056964608
 47
1.0
 49
1.0
140
1.0
293
     1
141
0.0
294
     1
177
     0
142
1.0
295
     0
296
     0
143
3.75
271
     0
272
     9
273
     9
298
     0
  0
MLEADERSTYLE
  5
1860
102
{ACAD_REACTORS
330
12D
102
}
330
12D
100
AcDbMLeaderStyle
179
     2
170
     2
171
     1
172
     0
 90
        2
 40
1.047197551196597
 41
1.570796326794896
173
     1
 91
-1056964608
340
14
 92
       -2
290
     1
 42
0.09
291
     1
 43
20.0
  3
Standard
341
3AA
 44
5.0
300

342
479
174
     1
178
     6
175
     1
176
     0
 93
-1056964608
 45
20.0
292
     0
297
     0
 46
0.18
 94
-1056964608
 47
1.0
 49
1.0
140
1.0
293
     1
141
0.0
294
     1
177
     0
142
1.0
295
     0
296
     0
143
0.125
271
     0
272
     9
273
     9
298
     0
  0
MLEADERSTYLE
  5
481
102
{ACAD_REACTORS
330
12D
102
}
330
12D
100
AcDbMLeaderStyle
179
     2
170
     2
171
     1
172
     0
 90
        2
 40
1.047197551196597
 41
1.570796326794896
173
     1
 91
-1056964608
340
14
 92
       -2
290
     1
 42
0.09
291
     1
 43
20.0
  3
Standard
341
453
 44
5.0
300

342
479
174
     1
178
     6
175
     1
176
     0
 93
-1056964608
 45
20.0
292
     0
297
     0
 46
0.18
 94
-1056964608
 47
1.0
 49
1.0
140
1.0
293
     1
141
0.0
294
     1
177
     0
142
1.0
295
     0
296
     0
143
0.125
271
     0
272
     9
273
     9
298
     0
  0
MLINESTYLE
  5
18
102
{ACAD_REACTORS
330
17
102
}
330
17
100
AcDbMlineStyle
  2
STANDARD
 70
     0
  3

 62
   256
 51
90.0
 52
90.0
 71
     2
 49
0.5
 62
   256
  6
BYLAYER
 49
-0.5
 62
   256
  6
BYLAYER
  0
PLOTSETTINGS
  5
3FF1
102
{ACAD_REACTORS
330
19
102
}
330
19
100
AcDbPlotSettings
  1
A4 縦　モノクロ
  2
AutoCAD PDF (Web and Mobile).pc3
  4
ISO_full_bleed_A4_(210.00_x_297.00_MM)
  6

 40
0.0
 41
0.0
 42
0.0
 43
0.0
 44
210.0
 45
297.0
 46
0.0
 47
0.0
 48
0.0
 49
0.0
140
0.0
141
0.0
142
1.0
143
1.0
 70
  2736
 72
     1
 73
     0
 74
     5
  7
monochrome.ctb
 75
    16
147
1.0
 76
     0
 77
     2
 78
   300
148
0.0
149
0.0
1001
ACAD_PSEXT
1000
AutoCAD PDF (Web and Mobile).pc3
1000
DWG To PDF
1000
ファイル
1000

1070
     0
  0
PLOTSETTINGS
  5
34EA
102
{ACAD_REACTORS
330
19
102
}
330
19
100
AcDbPlotSettings
  1
A4　横　モノクロ
  2
AutoCAD PDF (Web and Mobile).pc3
  4
ISO_full_bleed_A4_(297.00_x_210.00_MM)
  6

 40
0.0
 41
0.0
 42
0.0
 43
0.0
 44
297.0
 45
210.0
 46
0.0
 47
0.0
 48
0.0
 49
0.0
140
0.0
141
0.0
142
1.0
143
1.0
 70
 14504
 72
     1
 73
     0
 74
     5
  7
monochrome.ctb
 75
    16
147
0.9999999999999998
 76
     2
 77
     2
 78
   300
148
0.0
149
0.0
1001
ACAD_PSEXT
1000
AutoCAD PDF (Web and Mobile).pc3
1000
DWG To PDF
1000
ファイル
1000

1070
     0
  0
ACDBPLACEHOLDER
  5
F
102
{ACAD_REACTORS
330
E
102
}
330
E
  0
SCALE
  5
10D
102
{ACAD_REACTORS
330
10C
102
}
330
10C
100
AcDbScale
 70
     0
300
1:1
140
1.0
141
1.0
290
     1
  0
SCALE
  5
1BE
102
{ACAD_REACTORS
330
10C
102
}
330
10C
100
AcDbScale
 70
     0
300
1:2
140
1.0
141
2.0
290
     0
  0
SCALE
  5
1BF
102
{ACAD_REACTORS
330
10C
102
}
330
10C
100
AcDbScale
 70
     0
300
1:4
140
1.0
141
4.0
290
     0
  0
SCALE
  5
1C0
102
{ACAD_REACTORS
330
10C
102
}
330
10C
100
AcDbScale
 70
     0
300
1:5
140
1.0
141
5.0
290
     0
  0
SCALE
  5
1C1
102
{ACAD_REACTORS
330
10C
102
}
330
10C
100
AcDbScale
 70
     0
300
1:8
140
1.0
141
8.0
290
     0
  0
SCALE
  5
1C2
102
{ACAD_REACTORS
330
10C
102
}
330
10C
100
AcDbScale
 70
     0
300
1:10
140
1.0
141
10.0
290
     0
  0
SCALE
  5
1C3
102
{ACAD_REACTORS
330
10C
102
}
330
10C
100
AcDbScale
 70
     0
300
1:16
140
1.0
141
16.0
290
     0
  0
SCALE
  5
1C4
102
{ACAD_REACTORS
330
10C
102
}
330
10C
100
AcDbScale
 70
     0
300
1:20
140
1.0
141
20.0
290
     0
  0
SCALE
  5
1C5
102
{ACAD_REACTORS
330
10C
102
}
330
10C
100
AcDbScale
 70
     0
300
1:30
140
1.0
141
30.0
290
     0
  0
SCALE
  5
1C6
102
{ACAD_REACTORS
330
10C
102
}
330
10C
100
AcDbScale
 70
     0
300
1:40
140
1.0
141
40.0
290
     0
  0
SCALE
  5
1C7
102
{ACAD_REACTORS
330
10C
102
}
330
10C
100
AcDbScale
 70
     0
300
1:50
140
1.0
141
50.0
290
     0
  0
SCALE
  5
1C8
102
{ACAD_REACTORS
330
10C
102
}
330
10C
100
AcDbScale
 70
     0
300
1:100
140
1.0
141
100.0
290
     0
  0
SCALE
  5
1C9
102
{ACAD_REACTORS
330
10C
102
}
330
10C
100
AcDbScale
 70
     0
300
2:1
140
2.0
141
1.0
290
     0
  0
SCALE
  5
1CA
102
{ACAD_REACTORS
330
10C
102
}
330
10C
100
AcDbScale
 70
     0
300
4:1
140
4.0
141
1.0
290
     0
  0
SCALE
  5
1CB
102
{ACAD_REACTORS
330
10C
102
}
330
10C
100
AcDbScale
 70
     0
300
8:1
140
8.0
141
1.0
290
     0
  0
SCALE
  5
1CC
102
{ACAD_REACTORS
330
10C
102
}
330
10C
100
AcDbScale
 70
     0
300
10:1
140
10.0
141
1.0
290
     0
  0
SCALE
  5
1CD
102
{ACAD_REACTORS
330
10C
102
}
330
10C
100
AcDbScale
 70
     0
300
100:1
140
100.0
141
1.0
290
     0
  0
ACDBSECTIONVIEWSTYLE
  5
482
102
{ACAD_REACTORS
330
219
102
}
330
219
100
AcDbModelDocViewStyle
 70
     0
  3
Imperial24
290
     0
300
Imperial24
 90
        0
100
AcDbSectionViewStyle
 70
     0
 71
     0
 90
       78
 71
     1
340
11
 62
   256
 40
0.24
340
0
340
0
 62
   256
 40
0.24
300
I, O, Q, S, X, Z
 40
0.48
 90
        3
 40
0.18
 90
        1
 71
     2
340
16
 90
       25
 62
   256
340
16
 90
       50
 62
   256
 40
0.24
 40
0.0
 40
0.24
 71
     3
340
11
 62
   256
 40
0.24
 90
        1
 40
0.75
 90
        1
300
%<\AcVar ViewType \f "%tc1">% %<\AcVar ViewSectionStartId>%-%<\AcVar ViewSectionEndId>%\PSCALE %<\AcVar ViewScale \f "%sn">%
 71
     4
 62
   256
 62
   257
300
ANSI31
 40
1.0
 90
        0
290
     0
290
     0
 90
        6
 40
0.0
 40
1.570796326794896
 40
0.2617993877991494
 40
1.308996938995747
 40
-0.2617993877991494
 40
1.832595714594046
  0
ACDBSECTIONVIEWSTYLE
  5
21A
102
{ACAD_REACTORS
330
219
102
}
330
219
100
AcDbModelDocViewStyle
 70
     0
  3
Metric50
290
     0
300
Metric50
 90
        0
100
AcDbSectionViewStyle
 70
     0
 71
     0
 90
      102
 71
     1
340
11
 62
   256
 40
5.0
340
0
340
0
 62
   256
 40
5.0
300
I, O, Q, S, X, Z
 40
10.0
 90
        0
 40
2.5
 90
        0
 71
     2
340
16
 90
       25
 62
   256
340
16
 90
       50
 62
   256
 40
5.0
 40
2.5
 40
5.0
 71
     3
340
11
 62
   256
 40
5.0
 90
        0
 40
15.0
 90
        1
300
%<\AcVar ViewSectionStartId>%-%<\AcVar ViewSectionEndId>% (%<\AcVar ViewScale \f "%sn">%)
 71
     4
 62
   256
 62
   257
300
ANSI31
 40
1.0
 90
        0
290
     0
290
     0
 90
        6
 40
0.0
 40
1.570796326794896
 40
0.2617993877991494
 40
1.308996938995747
 40
-0.2617993877991494
 40
1.832595714594046
  0
TABLESTYLE
  5
7F
102
{ACAD_XDICTIONARY
360
162
102
}
102
{ACAD_REACTORS
330
7E
102
}
330
7E
100
AcDbTableStyle
280
     0
  3
Standard
 70
     0
 71
     0
 40
1.5
 41
1.5
280
     0
281
     0
  7
Standard
140
4.5
170
     2
 62
     0
 63
     7
283
     0
 90
      512
 91
        0
  1

274
    -2
284
     1
 64
     0
275
    -2
285
     1
 65
     0
276
    -2
286
     1
 66
     0
277
    -2
287
     1
 67
     0
278
    -2
288
     1
 68
     0
279
    -2
289
     1
 69
     0
  7
Standard
140
6.0
170
     5
 62
     0
 63
     7
283
     0
 90
      512
 91
        0
  1

274
    -2
284
     1
 64
     0
275
    -2
285
     1
 65
     0
276
    -2
286
     1
 66
     0
277
    -2
287
     1
 67
     0
278
    -2
288
     1
 68
     0
279
    -2
289
     1
 69
     0
  7
Standard
140
4.5
170
     5
 62
     0
 63
     7
283
     0
 90
      512
 91
        0
  1

274
    -2
284
     1
 64
     0
275
    -2
285
     1
 65
     0
276
    -2
286
     1
 66
     0
277
    -2
287
     1
 67
     0
278
    -2
288
     1
 68
     0
279
    -2
289
     1
 69
     0
  0
VISUALSTYLE
  5
F5
102
{ACAD_REACTORS
330
EF
102
}
330
EF
100
AcDbVisualStyle
  2
2dWireframe
 70
     4
177
     3
291
     0
 70
    58
 90
        0
176
     1
 90
        2
176
     1
 90
        1
176
     1
 90
        0
176
     1
 40
0.6
176
     1
 40
30.0
176
     1
 62
     7
420
 16777215
176
     1
 90
        1
176
     1
 90
        4
176
     1
 62
     7
176
     1
 62
   257
176
     1
 90
        1
176
     1
 90
        1
176
     1
 40
1.0
176
     1
 90
        0
176
     1
 62
   257
176
     1
 40
1.0
176
     1
 90
        1
176
     1
 90
        6
176
     1
 90
        2
176
     1
 62
     7
176
     1
 90
        5
176
     1
 90
        0
176
     1
 90
        0
176
     1
290
     0
176
     1
 90
        1
176
     1
 40
0.0
176
     1
 90
        0
176
     1
290
     1
176
     1
290
     1
176
     1
290
     0
176
     1
290
     0
176
     1
290
     0
176
     1
290
     0
176
     1
290
     0
176
     1
290
     0
176
     1
290
     0
176
     1
 90
       50
176
     1
 40
0.0
176
     1
 40
1.0
176
     1
 90
        0
176
     1
 62
    18
420
        0
176
     1
 90
       50
176
     1
 90
        3
176
     1
 62
     5
420
      255
176
     1
290
     0
176
     1
 90
       50
176
     1
 90
       50
176
     1
 90
       50
176
     1
290
     0
176
     1
 90
       50
176
     1
 62
   256
176
     0
 40
1.0
176
     0
 90
        2
176
     1
  1
strokes_ogs.tif
176
     1
290
     0
176
     1
 40
1.0
176
     1
 40
1.0
176
     1
  0
VISUALSTYLE
  5
F4
102
{ACAD_REACTORS
330
EF
102
}
330
EF
100
AcDbVisualStyle
  2
Basic
 70
     7
177
     3
291
     1
 70
    58
 90
        1
176
     1
 90
        0
176
     1
 90
        1
176
     1
 90
        0
176
     1
 40
0.6
176
     1
 40
30.0
176
     1
 62
     7
420
 16777215
176
     1
 90
        0
176
     1
 90
        4
176
     1
 62
     7
176
     1
 62
   257
176
     1
 90
        1
176
     1
 90
        1
176
     1
 40
1.0
176
     1
 90
        8
176
     1
 62
     7
176
     1
 40
1.0
176
     1
 90
        1
176
     1
 90
        6
176
     1
 90
        2
176
     1
 62
     7
176
     1
 90
        5
176
     1
 90
        0
176
     1
 90
        0
176
     1
290
     0
176
     1
 90
        1
176
     1
 40
0.0
176
     1
 90
        0
176
     1
290
     0
176
     1
290
     1
176
     1
290
     1
176
     1
290
     0
176
     1
290
     0
176
     1
290
     0
176
     1
290
     0
176
     1
290
     0
176
     1
290
     0
176
     1
 90
       50
176
     1
 40
0.0
176
     1
 40
1.0
176
     1
 90
        0
176
     1
 62
    18
420
        0
176
     1
 90
       50
176
     1
 90
        3
176
     1
 62
     5
420
      255
176
     1
290
     0
176
     1
 90
       50
176
     1
 90
       50
176
     1
 90
       50
176
     1
290
     0
176
     1
 90
       50
176
     1
 62
   256
176
     0
 40
1.0
176
     0
 90
        2
176
     1
  1
strokes_ogs.tif
176
     1
290
     0
176
     1
 40
1.0
176
     1
 40
1.0
176
     1
  0
VISUALSTYLE
  5
FB
102
{ACAD_REACTORS
330
EF
102
}
330
EF
100
AcDbVisualStyle
  2
Brighten
 70
    12
177
     3
291
     1
 70
    58
 90
        2
176
     1
 90
        2
176
     1
 90
        1
176
     1
 90
        0
176
     1
 40
0.6
176
     1
 40
30.0
176
     1
 62
     7
420
 16777215
176
     1
 90
        1
176
     1
 90
        4
176
     1
 62
     7
176
     1
 62
   257
176
     1
 90
        1
176
     1
 90
        1
176
     1
 40
1.0
176
     1
 90
        8
176
     1
 62
     7
176
     1
 40
1.0
176
     1
 90
        1
176
     1
 90
        6
176
     1
 90
        2
176
     1
 62
     7
176
     1
 90
        5
176
     1
 90
        0
176
     1
 90
        0
176
     1
290
     0
176
     1
 90
        1
176
     1
 40
50.0
176
     1
 90
        0
176
     1
290
     0
176
     1
290
     1
176
     1
290
     1
176
     1
290
     0
176
     1
290
     0
176
     1
290
     0
176
     1
290
     0
176
     1
290
     0
176
     1
290
     0
176
     1
 90
       50
176
     1
 40
0.0
176
     1
 40
1.0
176
     1
 90
        0
176
     1
 62
    18
420
        0
176
     1
 90
       50
176
     1
 90
        3
176
     1
 62
     5
420
      255
176
     1
290
     0
176
     1
 90
       50
176
     1
 90
       50
176
     1
 90
       50
176
     1
290
     0
176
     1
 90
       50
176
     1
 62
   256
176
     0
 40
1.0
176
     0
 90
        2
176
     1
  1
strokes_ogs.tif
176
     1
290
     0
176
     1
 40
1.0
176
     1
 40
1.0
176
     1
  0
VISUALSTYLE
  5
FF
102
{ACAD_REACTORS
330
EF
102
}
330
EF
100
AcDbVisualStyle
  2
ColorChange
 70
    16
177
     3
291
     1
 70
    58
 90
        2
176
     1
 90
        2
176
     1
 90
        3
176
     1
 90
        0
176
     1
 40
0.6
176
     1
 40
30.0
176
     1
 62
     8
420
  8421504
176
     1
 90
        1
176
     1
 90
        4
176
     1
 62
     7
176
     1
 62
   257
176
     1
 90
        1
176
     1
 90
        1
176
     1
 40
1.0
176
     1
 90
        8
176
     1
 62
     8
420
  8421504
176
     1
 40
1.0
176
     1
 90
        1
176
     1
 90
        6
176
     1
 90
        2
176
     1
 62
     7
176
     1
 90
        5
176
     1
 90
        0
176
     1
 90
        0
176
     1
290
     0
176
     1
 90
        1
176
     1
 40
0.0
176
     1
 90
        0
176
     1
290
     0
176
     1
290
     1
176
     1
290
     1
176
     1
290
     0
176
     1
290
     0
176
     1
290
     0
176
     1
290
     0
176
     1
290
     0
176
     1
290
     0
176
     1
 90
       50
176
     1
 40
0.0
176
     1
 40
1.0
176
     1
 90
        0
176
     1
 62
    18
420
        0
176
     1
 90
       50
176
     1
 90
        3
176
     1
 62
     5
420
      255
176
     1
290
     0
176
     1
 90
       50
176
     1
 90
       50
176
     1
 90
       50
176
     1
290
     0
176
     1
 90
       50
176
     1
 62
   256
176
     0
 40
1.0
176
     0
 90
        2
176
     1
  1
strokes_ogs.tif
176
     1
290
     0
176
     1
 40
1.0
176
     1
 40
1.0
176
     1
  0
VISUALSTYLE
  5
F8
102
{ACAD_REACTORS
330
EF
102
}
330
EF
100
AcDbVisualStyle
  2
Conceptual
 70
     9
177
     3
291
     0
 70
    58
 90
        3
176
     1
 90
        2
176
     1
 90
        1
176
     1
 90
        0
176
     1
 40
0.6
176
     1
 40
30.0
176
     1
 62
     7
420
 16777215
176
     1
 90
        2
176
     1
 90
        2
176
     1
 62
     7
176
     1
 62
   257
176
     1
 90
        1
176
     1
 90
        1
176
     1
 40
40.0
176
     1
 90
        8
176
     1
 62
     7
176
     1
 40
1.0
176
     1
 90
        1
176
     1
 90
        6
176
     1
 90
        2
176
     1
 62
     7
176
     1
 90
        3
176
     1
 90
        0
176
     1
 90
        0
176
     1
290
     0
176
     1
 90
        1
176
     1
 40
0.0
176
     1
 90
        0
176
     1
290
     0
176
     1
290
     1
176
     1
290
     1
176
     1
290
     0
176
     1
290
     0
176
     1
290
     0
176
     1
290
     0
176
     1
290
     0
176
     1
290
     0
176
     1
 90
       50
176
     1
 40
0.0
176
     1
 40
1.0
176
     1
 90
        0
176
     1
 62
    18
420
        0
176
     1
 90
       50
176
     1
 90
        3
176
     1
 62
     5
420
      255
176
     1
290
     0
176
     1
 90
       50
176
     1
 90
       50
176
     1
 90
       50
176
     1
290
     0
176
     1
 90
       50
176
     1
 62
   256
176
     0
 40
1.0
176
     0
 90
        2
176
     1
  1
strokes_ogs.tif
176
     1
290
     0
176
     1
 40
1.0
176
     1
 40
1.0
176
     1
  0
VISUALSTYLE
  5
FA
102
{ACAD_REACTORS
330
EF
102
}
330
EF
100
AcDbVisualStyle
  2
Dim
 70
    11
177
     3
291
     1
 70
    58
 90
        2
176
     1
 90
        2
176
     1
 90
        1
176
     1
 90
        0
176
     1
 40
0.6
176
     1
 40
30.0
176
     1
 62
     7
420
 16777215
176
     1
 90
        1
176
     1
 90
        4
176
     1
 62
     7
176
     1
 62
   257
176
     1
 90
        1
176
     1
 90
        1
176
     1
 40
1.0
176
     1
 90
        8
176
     1
 62
     7
176
     1
 40
1.0
176
     1
 90
        1
176
     1
 90
        6
176
     1
 90
        2
176
     1
 62
     7
176
     1
 90
        5
176
     1
 90
        0
176
     1
 90
        0
176
     1
290
     0
176
     1
 90
        1
176
     1
 40
-50.0
176
     1
 90
        0
176
     1
290
     0
176
     1
290
     1
176
     1
290
     1
176
     1
290
     0
176
     1
290
     0
176
     1
290
     0
176
     1
290
     0
176
     1
290
     0
176
     1
290
     0
176
     1
 90
       50
176
     1
 40
0.0
176
     1
 40
1.0
176
     1
 90
        0
176
     1
 62
    18
420
        0
176
     1
 90
       50
176
     1
 90
        3
176
     1
 62
     5
420
      255
176
     1
290
     0
176
     1
 90
       50
176
     1
 90
       50
176
     1
 90
       50
176
     1
290
     0
176
     1
 90
       50
176
     1
 62
   256
176
     0
 40
1.0
176
     0
 90
        2
176
     1
  1
strokes_ogs.tif
176
     1
290
     0
176
     1
 40
1.0
176
     1
 40
1.0
176
     1
  0
VISUALSTYLE
  5
1E6
102
{ACAD_REACTORS
330
EF
102
}
330
EF
100
AcDbVisualStyle
  2
EdgeColorOff
 70
    22
177
     3
291
     1
 70
    58
 90
        2
176
     0
 90
        2
176
     0
 90
        0
176
     0
 90
        0
176
     0
 40
0.6
176
     0
 40
30.0
176
     0
 62
     7
420
 16777215
176
     0
 90
        1
176
     0
 90
        4
176
     0
 62
     7
176
     0
 62
   257
176
     0
 90
        1
176
     0
 90
        1
176
     0
 40
1.0
176
     0
 90
        8
176
     2
 62
     7
176
     0
 40
1.0
176
     0
 90
        1
176
     0
 90
        6
176
     0
 90
        2
176
     0
 62
     7
176
     0
 90
        5
176
     0
 90
        0
176
     0
 90
        0
176
     0
290
     0
176
     0
 90
        1
176
     0
 40
0.0
176
     0
 90
        0
176
     0
290
     0
176
     1
290
     1
176
     1
290
     1
176
     1
290
     0
176
     1
290
     0
176
     1
290
     0
176
     1
290
     0
176
     1
290
     0
176
     1
290
     0
176
     1
 90
       50
176
     1
 40
0.0
176
     1
 40
1.0
176
     1
 90
        0
176
     1
 62
    18
420
        0
176
     1
 90
       50
176
     1
 90
        3
176
     1
 62
     5
420
      255
176
     1
290
     0
176
     1
 90
       50
176
     1
 90
       50
176
     1
 90
       50
176
     1
290
     0
176
     1
 90
       50
176
     1
 62
   256
176
     0
 40
1.0
176
     0
 90
        2
176
     1
  1
strokes_ogs.tif
176
     1
290
     0
176
     1
 40
1.0
176
     1
 40
1.0
176
     1
  0
VISUALSTYLE
  5
FE
102
{ACAD_REACTORS
330
EF
102
}
330
EF
100
AcDbVisualStyle
  2
Facepattern
 70
    15
177
     3
291
     1
 70
    58
 90
        2
176
     1
 90
        2
176
     1
 90
        1
176
     1
 90
        0
176
     1
 40
0.6
176
     1
 40
30.0
176
     1
 62
     7
420
 16777215
176
     1
 90
        1
176
     1
 90
        4
176
     1
 62
     7
176
     1
 62
   257
176
     1
 90
        1
176
     1
 90
        1
176
     1
 40
1.0
176
     1
 90
        8
176
     1
 62
     7
176
     1
 40
1.0
176
     1
 90
        1
176
     1
 90
        6
176
     1
 90
        2
176
     1
 62
     7
176
     1
 90
        5
176
     1
 90
        0
176
     1
 90
        0
176
     1
290
     0
176
     1
 90
        1
176
     1
 40
0.0
176
     1
 90
        0
176
     1
290
     0
176
     1
290
     1
176
     1
290
     1
176
     1
290
     0
176
     1
290
     0
176
     1
290
     0
176
     1
290
     0
176
     1
290
     0
176
     1
290
     0
176
     1
 90
       50
176
     1
 40
0.0
176
     1
 40
1.0
176
     1
 90
        0
176
     1
 62
    18
420
        0
176
     1
 90
       50
176
     1
 90
        3
176
     1
 62
     5
420
      255
176
     1
290
     0
176
     1
 90
       50
176
     1
 90
       50
176
     1
 90
       50
176
     1
290
     0
176
     1
 90
       50
176
     1
 62
   256
176
     0
 40
1.0
176
     0
 90
        2
176
     1
  1
strokes_ogs.tif
176
     1
290
     0
176
     1
 40
1.0
176
     1
 40
1.0
176
     1
  0
VISUALSTYLE
  5
F0
102
{ACAD_REACTORS
330
EF
102
}
330
EF
100
AcDbVisualStyle
  2
Flat
 70
     0
177
     3
291
     1
 70
    58
 90
        2
176
     1
 90
        1
176
     1
 90
        1
176
     1
 90
        2
176
     1
 40
0.6
176
     1
 40
30.0
176
     1
 62
     7
420
 16777215
176
     1
 90
        0
176
     1
 90
        0
176
     1
 62
     7
176
     1
 62
   257
176
     1
 90
        1
176
     1
 90
        1
176
     1
 40
1.0
176
     1
 90
        8
176
     1
 62
     7
176
     1
 40
1.0
176
     1
 90
        1
176
     1
 90
        6
176
     1
 90
        2
176
     1
 62
     7
176
     1
 90
        5
176
     1
 90
        0
176
     1
 90
        0
176
     1
290
     0
176
     1
 90
       13
176
     1
 40
0.0
176
     1
 90
        0
176
     1
290
     0
176
     1
290
     1
176
     1
290
     1
176
     1
290
     0
176
     1
290
     0
176
     1
290
     0
176
     1
290
     0
176
     1
290
     0
176
     1
290
     0
176
     1
 90
       50
176
     1
 40
0.0
176
     1
 40
1.0
176
     1
 90
        0
176
     1
 62
    18
420
        0
176
     1
 90
       50
176
     1
 90
        3
176
     1
 62
     5
420
      255
176
     1
290
     0
176
     1
 90
       50
176
     1
 90
       50
176
     1
 90
       50
176
     1
290
     0
176
     1
 90
       50
176
     1
 62
   256
176
     0
 40
1.0
176
     0
 90
        2
176
     1
  1
strokes_ogs.tif
176
     1
290
     0
176
     1
 40
1.0
176
     1
 40
1.0
176
     1
  0
VISUALSTYLE
  5
F1
102
{ACAD_REACTORS
330
EF
102
}
330
EF
100
AcDbVisualStyle
  2
FlatWithEdges
 70
     1
177
     3
291
     1
 70
    58
 90
        2
176
     1
 90
        1
176
     1
 90
        1
176
     1
 90
        2
176
     1
 40
0.6
176
     1
 40
30.0
176
     1
 62
     7
420
 16777215
176
     1
 90
        1
176
     1
 90
        0
176
     1
 62
     7
176
     1
 62
   257
176
     1
 90
        1
176
     1
 90
        1
176
     1
 40
1.0
176
     1
 90
        0
176
     1
 62
   257
176
     1
 40
1.0
176
     1
 90
        1
176
     1
 90
        6
176
     1
 90
        2
176
     1
 62
     7
176
     1
 90
        5
176
     1
 90
        0
176
     1
 90
        0
176
     1
290
     0
176
     1
 90
       13
176
     1
 40
0.0
176
     1
 90
        0
176
     1
290
     0
176
     1
290
     1
176
     1
290
     1
176
     1
290
     0
176
     1
290
     0
176
     1
290
     0
176
     1
290
     0
176
     1
290
     0
176
     1
290
     0
176
     1
 90
       50
176
     1
 40
0.0
176
     1
 40
1.0
176
     1
 90
        0
176
     1
 62
    18
420
        0
176
     1
 90
       50
176
     1
 90
        3
176
     1
 62
     5
420
      255
176
     1
290
     0
176
     1
 90
       50
176
     1
 90
       50
176
     1
 90
       50
176
     1
290
     0
176
     1
 90
       50
176
     1
 62
   256
176
     0
 40
1.0
176
     0
 90
        2
176
     1
  1
strokes_ogs.tif
176
     1
290
     0
176
     1
 40
1.0
176
     1
 40
1.0
176
     1
  0
VISUALSTYLE
  5
F2
102
{ACAD_REACTORS
330
EF
102
}
330
EF
100
AcDbVisualStyle
  2
Gouraud
 70
     2
177
     3
291
     1
 70
    58
 90
        2
176
     1
 90
        2
176
     1
 90
        1
176
     1
 90
        2
176
     1
 40
0.6
176
     1
 40
30.0
176
     1
 62
     7
420
 16777215
176
     1
 90
        0
176
     1
 90
        0
176
     1
 62
     7
176
     1
 62
   257
176
     1
 90
        1
176
     1
 90
        1
176
     1
 40
1.0
176
     1
 90
        0
176
     1
 62
     7
176
     1
 40
1.0
176
     1
 90
        1
176
     1
 90
        6
176
     1
 90
        2
176
     1
 62
     7
176
     1
 90
        5
176
     1
 90
        0
176
     1
 90
        0
176
     1
290
     0
176
     1
 90
       13
176
     1
 40
0.0
176
     1
 90
        0
176
     1
290
     0
176
     1
290
     1
176
     1
290
     1
176
     1
290
     0
176
     1
290
     0
176
     1
290
     0
176
     1
290
     0
176
     1
290
     0
176
     1
290
     0
176
     1
 90
       50
176
     1
 40
0.0
176
     1
 40
1.0
176
     1
 90
        0
176
     1
 62
    18
420
        0
176
     1
 90
       50
176
     1
 90
        3
176
     1
 62
     5
420
      255
176
     1
290
     0
176
     1
 90
       50
176
     1
 90
       50
176
     1
 90
       50
176
     1
290
     0
176
     1
 90
       50
176
     1
 62
   256
176
     0
 40
1.0
176
     0
 90
        2
176
     1
  1
strokes_ogs.tif
176
     1
290
     0
176
     1
 40
1.0
176
     1
 40
1.0
176
     1
  0
VISUALSTYLE
  5
F3
102
{ACAD_REACTORS
330
EF
102
}
330
EF
100
AcDbVisualStyle
  2
GouraudWithEdges
 70
     3
177
     3
291
     1
 70
    58
 90
        2
176
     1
 90
        2
176
     1
 90
        1
176
     1
 90
        2
176
     1
 40
0.6
176
     1
 40
30.0
176
     1
 62
     7
420
 16777215
176
     1
 90
        1
176
     1
 90
        0
176
     1
 62
     7
176
     1
 62
   257
176
     1
 90
        1
176
     1
 90
        1
176
     1
 40
1.0
176
     1
 90
        0
176
     1
 62
   257
176
     1
 40
1.0
176
     1
 90
        1
176
     1
 90
        6
176
     1
 90
        2
176
     1
 62
     7
176
     1
 90
        5
176
     1
 90
        0
176
     1
 90
        0
176
     1
290
     0
176
     1
 90
       13
176
     1
 40
0.0
176
     1
 90
        0
176
     1
290
     0
176
     1
290
     1
176
     1
290
     1
176
     1
290
     0
176
     1
290
     0
176
     1
290
     0
176
     1
290
     0
176
     1
290
     0
176
     1
290
     0
176
     1
 90
       50
176
     1
 40
0.0
176
     1
 40
1.0
176
     1
 90
        0
176
     1
 62
    18
420
        0
176
     1
 90
       50
176
     1
 90
        3
176
     1
 62
     5
420
      255
176
     1
290
     0
176
     1
 90
       50
176
     1
 90
       50
176
     1
 90
       50
176
     1
290
     0
176
     1
 90
       50
176
     1
 62
   256
176
     0
 40
1.0
176
     0
 90
        2
176
     1
  1
strokes_ogs.tif
176
     1
290
     0
176
     1
 40
1.0
176
     1
 40
1.0
176
     1
  0
VISUALSTYLE
  5
F7
102
{ACAD_REACTORS
330
EF
102
}
330
EF
100
AcDbVisualStyle
  2
Hidden
 70
     6
177
     3
291
     0
 70
    58
 90
        1
176
     1
 90
        2
176
     1
 90
        2
176
     1
 90
        0
176
     1
 40
0.6
176
     1
 40
30.0
176
     1
 62
     7
420
 16777215
176
     1
 90
        2
176
     1
 90
        2
176
     1
 62
     7
176
     1
 62
   257
176
     1
 90
        2
176
     1
 90
        1
176
     1
 40
40.0
176
     1
 90
        0
176
     1
 62
   257
176
     1
 40
1.0
176
     1
 90
        1
176
     1
 90
        6
176
     1
 90
        2
176
     1
 62
     7
176
     1
 90
        3
176
     1
 90
        0
176
     1
 90
        0
176
     1
290
     0
176
     1
 90
        1
176
     1
 40
0.0
176
     1
 90
        0
176
     1
290
     0
176
     1
290
     1
176
     1
290
     1
176
     1
290
     0
176
     1
290
     0
176
     1
290
     0
176
     1
290
     0
176
     1
290
     0
176
     1
290
     0
176
     1
 90
       50
176
     1
 40
0.0
176
     1
 40
1.0
176
     1
 90
        0
176
     1
 62
    18
420
        0
176
     1
 90
       50
176
     1
 90
        3
176
     1
 62
     5
420
      255
176
     1
290
     0
176
     1
 90
       50
176
     1
 90
       50
176
     1
 90
       50
176
     1
290
     0
176
     1
 90
       50
176
     1
 62
   256
176
     0
 40
1.0
176
     0
 90
        2
176
     1
  1
strokes_ogs.tif
176
     1
290
     0
176
     1
 40
1.0
176
     1
 40
1.0
176
     1
  0
VISUALSTYLE
  5
1E4
102
{ACAD_REACTORS
330
EF
102
}
330
EF
100
AcDbVisualStyle
  2
JitterOff
 70
    20
177
     3
291
     1
 70
    58
 90
        2
176
     0
 90
        2
176
     0
 90
        0
176
     0
 90
        0
176
     0
 40
0.6
176
     0
 40
30.0
176
     0
 62
     7
420
 16777215
176
     0
 90
        1
176
     0
 90
        4
176
     0
 62
     7
176
     0
 62
   257
176
     0
 90
        1
176
     0
 90
        1
176
     0
 40
1.0
176
     0
 90
       10
176
     2
 62
     7
176
     0
 40
1.0
176
     0
 90
        1
176
     0
 90
        6
176
     0
 90
        2
176
     0
 62
     7
176
     0
 90
        5
176
     0
 90
        0
176
     0
 90
        0
176
     0
290
     0
176
     0
 90
        1
176
     0
 40
0.0
176
     0
 90
        0
176
     0
290
     0
176
     1
290
     1
176
     1
290
     1
176
     1
290
     0
176
     1
290
     0
176
     1
290
     0
176
     1
290
     0
176
     1
290
     0
176
     1
290
     0
176
     1
 90
       50
176
     1
 40
0.0
176
     1
 40
1.0
176
     1
 90
        0
176
     1
 62
    18
420
        0
176
     1
 90
       50
176
     1
 90
        3
176
     1
 62
     5
420
      255
176
     1
290
     0
176
     1
 90
       50
176
     1
 90
       50
176
     1
 90
       50
176
     1
290
     0
176
     1
 90
       50
176
     1
 62
   256
176
     0
 40
1.0
176
     0
 90
        2
176
     1
  1
strokes_ogs.tif
176
     1
290
     0
176
     1
 40
1.0
176
     1
 40
1.0
176
     1
  0
VISUALSTYLE
  5
FD
102
{ACAD_REACTORS
330
EF
102
}
330
EF
100
AcDbVisualStyle
  2
Linepattern
 70
    14
177
     3
291
     1
 70
    58
 90
        2
176
     1
 90
        2
176
     1
 90
        1
176
     1
 90
        0
176
     1
 40
0.6
176
     1
 40
30.0
176
     1
 62
     7
420
 16777215
176
     1
 90
        1
176
     1
 90
        4
176
     1
 62
     7
176
     1
 62
   257
176
     1
 90
        7
176
     1
 90
        7
176
     1
 40
1.0
176
     1
 90
        8
176
     1
 62
     7
176
     1
 40
1.0
176
     1
 90
        1
176
     1
 90
        6
176
     1
 90
        2
176
     1
 62
     7
176
     1
 90
        5
176
     1
 90
        0
176
     1
 90
        0
176
     1
290
     0
176
     1
 90
        1
176
     1
 40
0.0
176
     1
 90
        0
176
     1
290
     0
176
     1
290
     1
176
     1
290
     1
176
     1
290
     0
176
     1
290
     0
176
     1
290
     0
176
     1
290
     0
176
     1
290
     0
176
     1
290
     0
176
     1
 90
       50
176
     1
 40
0.0
176
     1
 40
1.0
176
     1
 90
        0
176
     1
 62
    18
420
        0
176
     1
 90
       50
176
     1
 90
        3
176
     1
 62
     5
420
      255
176
     1
290
     0
176
     1
 90
       50
176
     1
 90
       50
176
     1
 90
       50
176
     1
290
     0
176
     1
 90
       50
176
     1
 62
   256
176
     0
 40
1.0
176
     0
 90
        2
176
     1
  1
strokes_ogs.tif
176
     1
290
     0
176
     1
 40
1.0
176
     1
 40
1.0
176
     1
  0
VISUALSTYLE
  5
1E5
102
{ACAD_REACTORS
330
EF
102
}
330
EF
100
AcDbVisualStyle
  2
OverhangOff
 70
    21
177
     3
291
     1
 70
    58
 90
        2
176
     0
 90
        2
176
     0
 90
        0
176
     0
 90
        0
176
     0
 40
0.6
176
     0
 40
30.0
176
     0
 62
     7
420
 16777215
176
     0
 90
        1
176
     0
 90
        4
176
     0
 62
     7
176
     0
 62
   257
176
     0
 90
        1
176
     0
 90
        1
176
     0
 40
1.0
176
     0
 90
        9
176
     2
 62
     7
176
     0
 40
1.0
176
     0
 90
        1
176
     0
 90
        6
176
     0
 90
        2
176
     0
 62
     7
176
     0
 90
        5
176
     0
 90
        0
176
     0
 90
        0
176
     0
290
     0
176
     0
 90
        1
176
     0
 40
0.0
176
     0
 90
        0
176
     0
290
     0
176
     1
290
     1
176
     1
290
     1
176
     1
290
     0
176
     1
290
     0
176
     1
290
     0
176
     1
290
     0
176
     1
290
     0
176
     1
290
     0
176
     1
 90
       50
176
     1
 40
0.0
176
     1
 40
1.0
176
     1
 90
        0
176
     1
 62
    18
420
        0
176
     1
 90
       50
176
     1
 90
        3
176
     1
 62
     5
420
      255
176
     1
290
     0
176
     1
 90
       50
176
     1
 90
       50
176
     1
 90
       50
176
     1
290
     0
176
     1
 90
       50
176
     1
 62
   256
176
     0
 40
1.0
176
     0
 90
        2
176
     1
  1
strokes_ogs.tif
176
     1
290
     0
176
     1
 40
1.0
176
     1
 40
1.0
176
     1
  0
VISUALSTYLE
  5
F9
102
{ACAD_REACTORS
330
EF
102
}
330
EF
100
AcDbVisualStyle
  2
Realistic
 70
     8
177
     3
291
     0
 70
    58
 90
        2
176
     1
 90
        3
176
     1
 90
        0
176
     1
 90
        2
176
     1
 40
0.6
176
     1
 40
30.0
176
     1
 62
     7
420
 16777215
176
     1
 90
        0
176
     1
 90
        0
176
     1
 62
     7
176
     1
 62
   257
176
     1
 90
        1
176
     1
 90
        1
176
     1
 40
1.0
176
     1
 90
        8
176
     1
 62
   257
176
     1
 40
1.0
176
     1
 90
        1
176
     1
 90
        6
176
     1
 90
        2
176
     1
 62
     7
176
     1
 90
        3
176
     1
 90
        0
176
     1
 90
        0
176
     1
290
     0
176
     1
 90
       13
176
     1
 40
0.0
176
     1
 90
        0
176
     1
290
     0
176
     1
290
     1
176
     1
290
     1
176
     1
290
     0
176
     1
290
     0
176
     1
290
     0
176
     1
290
     0
176
     1
290
     0
176
     1
290
     0
176
     1
 90
       50
176
     1
 40
0.0
176
     1
 40
1.0
176
     1
 90
        0
176
     1
 62
    18
420
        0
176
     1
 90
       50
176
     1
 90
        3
176
     1
 62
     5
420
      255
176
     1
290
     0
176
     1
 90
       50
176
     1
 90
       50
176
     1
 90
       50
176
     1
290
     0
176
     1
 90
       50
176
     1
 62
   256
176
     0
 40
1.0
176
     0
 90
        2
176
     1
  1
strokes_ogs.tif
176
     1
290
     0
176
     1
 40
1.0
176
     1
 40
1.0
176
     1
  0
VISUALSTYLE
  5
1F3
102
{ACAD_REACTORS
330
EF
102
}
330
EF
100
AcDbVisualStyle
  2
Shaded
 70
    27
177
     3
291
     0
 70
    58
 90
        2
176
     1
 90
        2
176
     1
 90
        1
176
     1
 90
        2
176
     1
 40
0.6
176
     1
 40
30.0
176
     1
 62
     7
420
 16777215
176
     1
 90
        0
176
     1
 90
        4
176
     1
 62
     7
176
     1
 62
   257
176
     1
 90
        1
176
     1
 90
        1
176
     1
 40
1.0
176
     1
 90
        8
176
     1
 62
   257
176
     1
 40
1.0
176
     1
 90
        1
176
     1
 90
        6
176
     1
 90
        2
176
     1
 62
     8
420
  7895160
176
     1
 90
        3
176
     1
 90
        0
176
     1
 90
        0
176
     1
290
     0
176
     1
 90
        5
176
     1
 40
0.0
176
     1
 90
        0
176
     1
290
     0
176
     1
290
     1
176
     1
290
     1
176
     1
290
     0
176
     1
290
     0
176
     1
290
     0
176
     1
290
     0
176
     1
290
     0
176
     1
290
     0
176
     1
 90
       50
176
     1
 40
0.0
176
     1
 40
1.0
176
     1
 90
        0
176
     1
 62
    18
420
        0
176
     1
 90
       50
176
     1
 90
        3
176
     1
 62
     5
420
      255
176
     1
290
     0
176
     1
 90
       50
176
     1
 90
       50
176
     1
 90
       50
176
     1
290
     0
176
     1
 90
       50
176
     1
 62
   256
176
     0
 40
1.0
176
     0
 90
        2
176
     1
  1
strokes_ogs.tif
176
     1
290
     0
176
     1
 40
1.0
176
     1
 40
1.0
176
     1
  0
VISUALSTYLE
  5
1F2
102
{ACAD_REACTORS
330
EF
102
}
330
EF
100
AcDbVisualStyle
  2
Shaded with edges
 70
    26
177
     3
291
     0
 70
    58
 90
        2
176
     1
 90
        2
176
     1
 90
        1
176
     1
 90
        2
176
     1
 40
0.6
176
     1
 40
30.0
176
     1
 62
     7
420
 16777215
176
     1
 90
        1
176
     1
 90
        2
176
     1
 62
     7
176
     1
 62
   257
176
     1
 90
        2
176
     1
 90
        1
176
     1
 40
1.0
176
     1
 90
        8
176
     1
 62
   257
176
     1
 40
1.0
176
     1
 90
        1
176
     1
 90
        6
176
     1
 90
        2
176
     1
 62
     7
176
     1
 90
        3
176
     1
 90
        0
176
     1
 90
        0
176
     1
290
     0
176
     1
 90
        5
176
     1
 40
0.0
176
     1
 90
        0
176
     1
290
     0
176
     1
290
     1
176
     1
290
     1
176
     1
290
     0
176
     1
290
     0
176
     1
290
     0
176
     1
290
     0
176
     1
290
     0
176
     1
290
     0
176
     1
 90
       50
176
     1
 40
0.0
176
     1
 40
1.0
176
     1
 90
        0
176
     1
 62
    18
420
        0
176
     1
 90
       50
176
     1
 90
        3
176
     1
 62
     5
420
      255
176
     1
290
     0
176
     1
 90
       50
176
     1
 90
       50
176
     1
 90
       50
176
     1
290
     0
176
     1
 90
       50
176
     1
 62
   256
176
     0
 40
1.0
176
     0
 90
        2
176
     1
  1
strokes_ogs.tif
176
     1
290
     0
176
     1
 40
1.0
176
     1
 40
1.0
176
     1
  0
VISUALSTYLE
  5
1EF
102
{ACAD_REACTORS
330
EF
102
}
330
EF
100
AcDbVisualStyle
  2
Shades of Gray
 70
    23
177
     3
291
     0
 70
    58
 90
        2
176
     1
 90
        2
176
     1
 90
        3
176
     1
 90
        0
176
     1
 40
0.6
176
     1
 40
30.0
176
     1
 62
     7
420
 16777215
176
     1
 90
        2
176
     1
 90
        2
176
     1
 62
     7
176
     1
 62
     7
176
     1
 90
        1
176
     1
 90
        1
176
     1
 40
40.0
176
     1
 90
        8
176
     1
 62
     7
176
     1
 40
1.0
176
     1
 90
        1
176
     1
 90
        6
176
     1
 90
        2
176
     1
 62
     7
176
     1
 90
        3
176
     1
 90
        0
176
     1
 90
        0
176
     1
290
     0
176
     1
 90
        1
176
     1
 40
0.0
176
     1
 90
        0
176
     1
290
     0
176
     1
290
     1
176
     1
290
     1
176
     1
290
     0
176
     1
290
     0
176
     1
290
     0
176
     1
290
     0
176
     1
290
     0
176
     1
290
     0
176
     1
 90
       50
176
     1
 40
0.0
176
     1
 40
1.0
176
     1
 90
        0
176
     1
 62
    18
420
        0
176
     1
 90
       50
176
     1
 90
        3
176
     1
 62
     5
420
      255
176
     1
290
     0
176
     1
 90
       50
176
     1
 90
       50
176
     1
 90
       50
176
     1
290
     0
176
     1
 90
       50
176
     1
 62
   256
176
     0
 40
1.0
176
     0
 90
        2
176
     1
  1
strokes_ogs.tif
176
     1
290
     0
176
     1
 40
1.0
176
     1
 40
1.0
176
     1
  0
VISUALSTYLE
  5
1F0
102
{ACAD_REACTORS
330
EF
102
}
330
EF
100
AcDbVisualStyle
  2
Sketchy
 70
    24
177
     3
291
     0
 70
    58
 90
        1
176
     1
 90
        2
176
     1
 90
        2
176
     1
 90
        0
176
     1
 40
0.6
176
     1
 40
30.0
176
     1
 62
     7
420
 16777215
176
     1
 90
        2
176
     1
 90
        2
176
     1
 62
     7
176
     1
 62
     7
176
     1
 90
        1
176
     1
 90
        1
176
     1
 40
40.0
176
     1
 90
       11
176
     1
 62
     7
176
     1
 40
1.0
176
     1
 90
        1
176
     1
 90
        6
176
     1
 90
        2
176
     1
 62
     7
176
     1
 90
        6
176
     1
 90
        0
176
     1
 90
        0
176
     1
290
     0
176
     1
 90
        1
176
     1
 40
0.0
176
     1
 90
        0
176
     1
290
     0
176
     1
290
     1
176
     1
290
     1
176
     1
290
     0
176
     1
290
     0
176
     1
290
     0
176
     1
290
     0
176
     1
290
     0
176
     1
290
     0
176
     1
 90
       50
176
     1
 40
0.0
176
     1
 40
1.0
176
     1
 90
        0
176
     1
 62
    18
420
        0
176
     1
 90
       50
176
     1
 90
        3
176
     1
 62
     5
420
      255
176
     1
290
     0
176
     1
 90
       50
176
     1
 90
       50
176
     1
 90
       50
176
     1
290
     0
176
     1
 90
       50
176
     1
 62
   256
176
     0
 40
1.0
176
     0
 90
        2
176
     1
  1
strokes_ogs.tif
176
     1
290
     0
176
     1
 40
1.0
176
     1
 40
1.0
176
     1
  0
VISUALSTYLE
  5
FC
102
{ACAD_REACTORS
330
EF
102
}
330
EF
100
AcDbVisualStyle
  2
Thicken
 70
    13
177
     3
291
     1
 70
    58
 90
        2
176
     1
 90
        2
176
     1
 90
        1
176
     1
 90
        0
176
     1
 40
0.6
176
     1
 40
30.0
176
     1
 62
     7
420
 16777215
176
     1
 90
        1
176
     1
 90
        4
176
     1
 62
     7
176
     1
 62
   257
176
     1
 90
        1
176
     1
 90
        1
176
     1
 40
1.0
176
     1
 90
       12
176
     1
 62
     7
176
     1
 40
1.0
176
     1
 90
        1
176
     1
 90
        6
176
     1
 90
        2
176
     1
 62
     7
176
     1
 90
        5
176
     1
 90
        0
176
     1
 90
        0
176
     1
290
     0
176
     1
 90
        1
176
     1
 40
0.0
176
     1
 90
        0
176
     1
290
     0
176
     1
290
     1
176
     1
290
     1
176
     1
290
     0
176
     1
290
     0
176
     1
290
     0
176
     1
290
     0
176
     1
290
     0
176
     1
290
     0
176
     1
 90
       50
176
     1
 40
0.0
176
     1
 40
1.0
176
     1
 90
        0
176
     1
 62
    18
420
        0
176
     1
 90
       50
176
     1
 90
        3
176
     1
 62
     5
420
      255
176
     1
290
     0
176
     1
 90
       50
176
     1
 90
       50
176
     1
 90
       50
176
     1
290
     0
176
     1
 90
       50
176
     1
 62
   256
176
     0
 40
1.0
176
     0
 90
        2
176
     1
  1
strokes_ogs.tif
176
     1
290
     0
176
     1
 40
1.0
176
     1
 40
1.0
176
     1
  0
VISUALSTYLE
  5
F6
102
{ACAD_REACTORS
330
EF
102
}
330
EF
100
AcDbVisualStyle
  2
Wireframe
 70
     5
177
     3
291
     0
 70
    58
 90
        0
176
     1
 90
        2
176
     1
 90
        0
176
     1
 90
        0
176
     1
 40
0.6
176
     1
 40
30.0
176
     1
 62
     7
420
 16777215
176
     1
 90
        1
176
     1
 90
        4
176
     1
 62
     7
176
     1
 62
   257
176
     1
 90
        1
176
     1
 90
        1
176
     1
 40
1.0
176
     1
 90
        0
176
     1
 62
   257
176
     1
 40
1.0
176
     1
 90
        1
176
     1
 90
        6
176
     1
 90
        2
176
     1
 62
     7
176
     1
 90
        3
176
     1
 90
        0
176
     1
 90
        0
176
     1
290
     0
176
     1
 90
        1
176
     1
 40
0.0
176
     1
 90
        0
176
     1
290
     0
176
     1
290
     1
176
     1
290
     1
176
     1
290
     0
176
     1
290
     0
176
     1
290
     0
176
     1
290
     0
176
     1
290
     0
176
     1
290
     0
176
     1
 90
       50
176
     1
 40
0.0
176
     1
 40
1.0
176
     1
 90
        0
176
     1
 62
    18
420
        0
176
     1
 90
       50
176
     1
 90
        3
176
     1
 62
     5
420
      255
176
     1
290
     0
176
     1
 90
       50
176
     1
 90
       50
176
     1
 90
       50
176
     1
290
     0
176
     1
 90
       50
176
     1
 62
   256
176
     0
 40
1.0
176
     0
 90
        2
176
     1
  1
strokes_ogs.tif
176
     1
290
     0
176
     1
 40
1.0
176
     1
 40
1.0
176
     1
  0
VISUALSTYLE
  5
1F1
102
{ACAD_REACTORS
330
EF
102
}
330
EF
100
AcDbVisualStyle
  2
X-Ray
 70
    25
177
     3
291
     0
 70
    58
 90
        2
176
     1
 90
        2
176
     1
 90
        1
176
     1
 90
        1
176
     1
 40
0.5
176
     1
 40
30.0
176
     1
 62
     7
420
 16777215
176
     1
 90
        1
176
     1
 90
        0
176
     1
 62
     7
176
     1
 62
   257
176
     1
 90
        1
176
     1
 90
        1
176
     1
 40
1.0
176
     1
 90
        8
176
     1
 62
     7
176
     1
 40
1.0
176
     1
 90
        1
176
     1
 90
        6
176
     1
 90
        2
176
     1
 62
     7
176
     1
 90
        3
176
     1
 90
        0
176
     1
 90
        0
176
     1
290
     0
176
     1
 90
       13
176
     1
 40
0.0
176
     1
 90
        0
176
     1
290
     0
176
     1
290
     1
176
     1
290
     1
176
     1
290
     0
176
     1
290
     0
176
     1
290
     0
176
     1
290
     0
176
     1
290
     0
176
     1
290
     0
176
     1
 90
       50
176
     1
 40
0.0
176
     1
 40
1.0
176
     1
 90
        0
176
     1
 62
    18
420
        0
176
     1
 90
       50
176
     1
 90
        3
176
     1
 62
     5
420
      255
176
     1
290
     0
176
     1
 90
       50
176
     1
 90
       50
176
     1
 90
       50
176
     1
290
     0
176
     1
 90
       50
176
     1
 62
   256
176
     0
 40
1.0
176
     0
 90
        2
176
     1
  1
strokes_ogs.tif
176
     1
290
     0
176
     1
 40
1.0
176
     1
 40
1.0
176
     1
  0
DICTIONARYVAR
  5
146
102
{ACAD_REACTORS
330
5E
102
}
330
5E
100
DictionaryVariables
280
     0
  1
1:1
  0
DICTIONARYVAR
  5
259
102
{ACAD_REACTORS
330
5E
102
}
330
5E
100
DictionaryVariables
280
     0
  1
3.500000
  0
DICTIONARYVAR
  5
25A
102
{ACAD_REACTORS
330
5E
102
}
330
5E
100
DictionaryVariables
280
     0
  1
acadiso.lin
  0
DICTIONARYVAR
  5
145
102
{ACAD_REACTORS
330
5E
102
}
330
5E
100
DictionaryVariables
280
     0
  1
NSマルチ引出線
  0
DICTIONARYVAR
  5
84
102
{ACAD_REACTORS
330
5E
102
}
330
5E
100
DictionaryVariables
280
     0
  1
STANDARD
  0
DICTIONARYVAR
  5
227
102
{ACAD_REACTORS
330
5E
102
}
330
5E
100
DictionaryVariables
280
     0
  1
Metric50
  0
DICTIONARYVAR
  5
228
102
{ACAD_REACTORS
330
5E
102
}
330
5E
100
DictionaryVariables
280
     0
  1
Metric50
  0
DICTIONARYVAR
  5
5F
102
{ACAD_REACTORS
330
5E
102
}
330
5E
100
DictionaryVariables
280
     0
  1
2
  0
DICTIONARYVAR
  5
63
102
{ACAD_REACTORS
330
5E
102
}
330
5E
100
DictionaryVariables
280
     0
  1
1
  0
DICTIONARYVAR
  5
14E9
102
{ACAD_REACTORS
330
5E
102
}
330
5E
100
DictionaryVariables
280
     0
  1
BYLAYER
  0
DICTIONARYVAR
  5
2804
102
{ACAD_REACTORS
330
5E
102
}
330
5E
100
DictionaryVariables
280
     0
  1
ﾊｯﾁ
  0
DICTIONARYVAR
  5
14E8
102
{ACAD_REACTORS
330
5E
102
}
330
5E
100
DictionaryVariables
280
     0
  1
ByLayer
  0
DICTIONARYVAR
  5
45D8
102
{ACAD_REACTORS
330
5E
102
}
330
5E
100
DictionaryVariables
280
     0
  1
0
  0
DICTIONARYVAR
  5
1AE
102
{ACAD_REACTORS
330
5E
102
}
330
5E
100
DictionaryVariables
280
     0
  1
0
  0
DICTIONARYVAR
  5
1AF
102
{ACAD_REACTORS
330
5E
102
}
330
5E
100
DictionaryVariables
280
     0
  1
0
  0
DICTIONARYVAR
  5
45D6
102
{ACAD_REACTORS
330
5E
102
}
330
5E
100
DictionaryVariables
280
     0
  1
2
  0
DICTIONARYVAR
  5
45D5
102
{ACAD_REACTORS
330
5E
102
}
330
5E
100
DictionaryVariables
280
     0
  1
1
  0
DICTIONARYVAR
  5
45DA
102
{ACAD_REACTORS
330
5E
102
}
330
5E
100
DictionaryVariables
280
     0
  1
80.000000
  0
DICTIONARYVAR
  5
45D9
102
{ACAD_REACTORS
330
5E
102
}
330
5E
100
DictionaryVariables
280
     0
  1
5.000000
  0
DICTIONARYVAR
  5
45D7
102
{ACAD_REACTORS
330
5E
102
}
330
5E
100
DictionaryVariables
280
     0
  1
127
  0
DICTIONARYVAR
  5
308
102
{ACAD_REACTORS
330
5E
102
}
330
5E
100
DictionaryVariables
280
     0
  1
中心
  0
DICTIONARYVAR
  5
45DB
102
{ACAD_REACTORS
330
5E
102
}
330
5E
100
DictionaryVariables
280
     0
  1
2
  0
XRECORD
  5
345F
102
{ACAD_XDICTIONARY
360
3460
102
}
102
{ACAD_REACTORS
330
200
102
}
330
200
100
AcDbXrecord
280
     1
 91
      535
301

290
     0
302
図面枠
330
31BE
 90
        8
 62
     8
370
    -3
331
16
  1
色_8
440
        0
330
0
 90
        8
 62
   190
370
    -3
331
16
  1
色_190
440
        0
330
31BC
 90
        8
 62
     7
370
    -3
331
16
  1
色_7
440
        0
330
31BB
 90
        8
 62
     5
370
    -3
331
16
  1
色_5
440
        0
330
31BA
 90
        8
 62
     3
370
    -3
331
16
  1
色_3
440
        0
330
1854
 90
        8
 62
     5
370
    -3
331
16
  1
色_5
440
        0
330
0
 90
        8
 62
     6
370
    -3
331
16
  1
色_6
440
        0
330
0
 90
        8
 62
     6
370
    -3
331
16
  1
色_6
440
        0
330
0
 90
        8
 62
     6
370
    -3
331
16
  1
色_6
440
        0
330
471
 90
        8
 62
    51
370
    -3
331
16
  1
色_51
440
        0
330
0
 90
        8
 62
     8
370
    -3
331
16
  1
色_8
440
        0
330
45D
 90
        8
 62
     8
370
    -3
331
16
  1
色_8
440
        0
330
0
 90
        8
 62
     4
370
    -3
331
16
  1
色_4
440
        0
330
459
 90
        8
 62
     2
370
    -3
331
16
  1
色_2
440
        0
330
458
 90
        0
 62
     7
370
    -3
331
16
  1
色_7
440
        0
330
0
 90
        8
 62
   250
370
   100
331
16
  1
色_250
440
        0
330
10
 90
        8
 62
     7
370
    -3
331
16
  1
色_7
440
        0
  0
DICTIONARY
  5
67F4
102
{ACAD_REACTORS
330
67F3
102
}
330
67F3
100
AcDbDictionary
281
     1
  3
*A1
350
67F5
  0
DICTIONARY
  5
6807
102
{ACAD_REACTORS
330
6806
102
}
330
6806
100
AcDbDictionary
281
     1
  3
*A1
350
6808
  0
DICTIONARY
  5
68CD
102
{ACAD_REACTORS
330
68CC
102
}
330
68CC
100
AcDbDictionary
281
     1
  3
*A1
350
68CE
  0
DICTIONARY
  5
68D2
102
{ACAD_REACTORS
330
68D1
102
}
330
68D1
100
AcDbDictionary
281
     1
  3
*A1
350
68D3
  0
DICTIONARY
  5
68DF
102
{ACAD_REACTORS
330
68DE
102
}
330
68DE
100
AcDbDictionary
281
     1
  3
*A1
350
68E0
  0
DICTIONARY
  5
68E4
102
{ACAD_REACTORS
330
68E3
102
}
330
68E3
100
AcDbDictionary
281
     1
  3
*A1
350
68E5
  0
DICTIONARY
  5
68E9
102
{ACAD_REACTORS
330
68E8
102
}
330
68E8
100
AcDbDictionary
281
     1
  3
*A1
350
68EA
  0
DICTIONARY
  5
6901
102
{ACAD_REACTORS
330
6900
102
}
330
6900
100
AcDbDictionary
281
     1
  3
*A1
350
6902
  0
DICTIONARY
  5
690B
102
{ACAD_REACTORS
330
690A
102
}
330
690A
100
AcDbDictionary
281
     1
  3
*A1
350
690C
  0
DICTIONARY
  5
6910
102
{ACAD_REACTORS
330
690F
102
}
330
690F
100
AcDbDictionary
281
     1
  3
*A1
350
6911
  0
DICTIONARY
  5
6B4B
102
{ACAD_REACTORS
330
6B4A
102
}
330
6B4A
100
AcDbDictionary
281
     1
  3
*A1
350
6B4C
  0
DICTIONARY
  5
205
330
22
100
AcDbDictionary
280
     1
281
     1
  0
DICTIONARY
  5
1F9
330
ED
100
AcDbDictionary
280
     1
281
     1
  3
FBXASSET
360
1FA
  0
DICTIONARY
  5
1F7
330
EC
100
AcDbDictionary
280
     1
281
     1
  3
FBXASSET
360
1F8
  0
DICTIONARY
  5
173
330
EE
100
AcDbDictionary
280
     1
281
     1
  3
BUMPTILE
360
175
  3
DIFFUSETILE
360
174
  3
FBXASSET
360
1FB
  3
OPACITYTILE
360
176
  3
REFLECTIONTILE
360
177
  0
DICTIONARY
  5
162
330
7F
100
AcDbDictionary
280
     1
281
     1
  3
ACAD_ROUNDTRIP_2008_TABLESTYLE_CELLSTYLEMAP
360
6C04
  0
DICTIONARY
  5
3460
330
345F
100
AcDbDictionary
280
     1
281
     1
  3
AcadLayerStateAnnoScale
360
3461
  0
ACDB_MTEXTOBJECTCONTEXTDATA_CLASS
  5
67F5
102
{ACAD_REACTORS
330
67F4
102
}
330
67F4
100
AcDbObjectContextData
 70
     4
290
     1
100
AcDbAnnotScaleObjectContextData
340
10D
 70
     1
 10
1.0
 20
0.0
 30
0.0
 11
3134.902368474581
 21
91.94760284568474
 31
0.0
 40
577.6161620626528
 41
0.0
 42
391.2577552031726
 43
45.60067681732234
 71
     0
  0
ACDB_MTEXTOBJECTCONTEXTDATA_CLASS
  5
6808
102
{ACAD_REACTORS
330
6807
102
}
330
6807
100
AcDbObjectContextData
 70
     4
290
     1
100
AcDbAnnotScaleObjectContextData
340
10D
 70
     1
 10
1.0
 20
0.0
 30
0.0
 11
1190.909576422422
 21
2808.866260770374
 31
0.0
 40
159.0904235775765
 41
0.0
 42
135.420191760533
 43
19.44444444375
 71
     0
  0
ACDB_TEXTOBJECTCONTEXTDATA_CLASS
  5
68CE
102
{ACAD_REACTORS
330
68CD
102
}
330
68CD
100
AcDbObjectContextData
 70
     4
290
     1
100
AcDbAnnotScaleObjectContextData
340
10D
 70
     0
 50
0.0
 10
334.3632873303886
 20
2381.677005135782
 11
0.0
 21
0.0
  0
ACDB_TEXTOBJECTCONTEXTDATA_CLASS
  5
68D3
102
{ACAD_REACTORS
330
68D2
102
}
330
68D2
100
AcDbObjectContextData
 70
     4
290
     1
100
AcDbAnnotScaleObjectContextData
340
10D
 70
     0
 50
0.0
 10
373.0525507841758
 20
2345.852005262561
 11
0.0
 21
0.0
  0
ACDB_TEXTOBJECTCONTEXTDATA_CLASS
  5
68E0
102
{ACAD_REACTORS
330
68DF
102
}
330
68DF
100
AcDbObjectContextData
 70
     4
290
     1
100
AcDbAnnotScaleObjectContextData
340
10D
 70
     0
 50
0.0
 10
647.7816406826859
 20
2554.104819027972
 11
0.0
 21
0.0
  0
ACDB_TEXTOBJECTCONTEXTDATA_CLASS
  5
68E5
102
{ACAD_REACTORS
330
68E4
102
}
330
68E4
100
AcDbObjectContextData
 70
     4
290
     1
100
AcDbAnnotScaleObjectContextData
340
10D
 70
     0
 50
0.0
 10
531.8919991459797
 20
2509.427497424334
 11
0.0
 21
0.0
  0
ACDB_TEXTOBJECTCONTEXTDATA_CLASS
  5
68EA
102
{ACAD_REACTORS
330
68E9
102
}
330
68E9
100
AcDbObjectContextData
 70
     4
290
     1
100
AcDbAnnotScaleObjectContextData
340
10D
 70
     0
 50
0.0
 10
672.1014562570017
 20
2476.074290397646
 11
0.0
 21
0.0
  0
ACDB_MTEXTOBJECTCONTEXTDATA_CLASS
  5
6902
102
{ACAD_REACTORS
330
6901
102
}
330
6901
100
AcDbObjectContextData
 70
     4
290
     1
100
AcDbAnnotScaleObjectContextData
340
10D
 70
     1
 10
1.0
 20
0.0
 30
0.0
 11
3581.817420322252
 21
129.5610498253518
 31
0.0
 40
462.1393032128266
 41
0.0
 42
198.589960511802
 43
23.29385222703046
 71
     0
  0
ACDB_MTEXTOBJECTCONTEXTDATA_CLASS
  5
690C
102
{ACAD_REACTORS
330
690B
102
}
330
690B
100
AcDbObjectContextData
 70
     4
290
     1
100
AcDbAnnotScaleObjectContextData
340
10D
 70
     1
 10
1.0
 20
0.0
 30
0.0
 11
3569.313669239412
 21
41.88099091199546
 31
0.0
 40
129.9636364640969
 41
0.0
 42
31.1802030445717
 43
10.30456852755076
 71
     0
  0
ACDB_MTEXTOBJECTCONTEXTDATA_CLASS
  5
6911
102
{ACAD_REACTORS
330
6910
102
}
330
6910
100
AcDbObjectContextData
 70
     4
290
     1
100
AcDbAnnotScaleObjectContextData
340
10D
 70
     1
 10
1.0
 20
0.0
 30
0.0
 11
3581.817420322252
 21
82.66278680701361
 31
0.0
 40
365.8938361970663
 41
0.0
 42
119.2329385180203
 43
22.20812182661802
 71
     0
  0
ACDB_MTEXTOBJECTCONTEXTDATA_CLASS
  5
6B4C
102
{ACAD_REACTORS
330
6B4B
102
}
330
6B4B
100
AcDbObjectContextData
 70
     4
290
     1
100
AcDbAnnotScaleObjectContextData
340
10D
 70
     1
 10
1.0
 20
0.0
 30
0.0
 11
3581.446201265706
 21
29.77909667533822
 31
0.0
 40
251.3548854161736
 41
20.21647881760145
 42
130.3172588785945
 43
20.43147208048857
 71
     0
  0
XRECORD
  5
1FA
102
{ACAD_REACTORS
330
1F9
102
}
330
1F9
100
AcDbXrecord
280
     1
 70
     1
 90
429727718
  1
D62C5603-E3A1-4AEA-B7FB-FE5D8D0755AF
310
504B03040A0000080000CC70623B3DEE336E79000000790000001B0000006175746F6465736B2D64657369676E2D7061636B6167652E786D6C3C3F786D6C2076657273696F6E3D22312E302220656E636F64696E673D227574662D3822203F3E3C666F726D6174733E3C666F726D61743E687474703A2F2F736368656D612E
310
6175746F6465736B2E636F6D2F64657369676E2D7061636B6167652F323030393C2F666F726D61743E3C2F666F726D6174733E504B0304140006080800CC70623BD486FD9CA0000000F4000000130000005B436F6E74656E745F54797065735D2E786D6C7D8EC10E82300C865F65E91D8A1E8C310C0EEA1BF002731658846E
310
D98AC1B77784ABF1D8FE5FBFBF75BBCE937A534CCEB38643598122B6FEE978D0B0485F9C41B54DDD7D022595594E1A469170414C76A4D9A4D207E29CF43ECE46F218070CC6BECC4078ACAA135ACF422C856C0E68EA1BF5669944DDD7BCDE7B1F8E415D77AECB980613C2E4AC91FC167A2B244592486606FC29C8FD7F045B9A
310
EF7053A7E60B504B0304140006080800CC70623B853B8169EB0000007C01000008000000636F72652E786D6C8D90416EC3201045AF62CDB6C206821CC7C244919D9CA01740401C94182C03558F5F9C3852BBEB6A467FFE9B197D7EFC9E1EC5975982F5AE035262288C535E5B377690E21535501C055FBC8FBF6C503839990E
310
5619041F179FE64D52DE45E362569DD7661365082642A11EB9E920A89B99642953CC8E702F67A9EE7234257977194EC9EAE275C4EABCCF5EAD5940D4AC6F0E35A568B8F43562CD7046CD199FD07E60174276A7BE677B5EADB0E0D14EEFFB6A31321A0D82627C4084204C3F096B71DD52F6819B16635EADF63F509AF53FA164
310
5DDCD1EDDD17164090FCC8732078B56691CB33A85CD7DCC40F504B0304140006080800CC70623B55019EA25F0000007C00000007000000636E782E786D6C4DCB3B0E80201045D1AD90E915ED2CF8AC45050C11660C8261F98AB1B07AC9C97D42D718D865D3E909258CFD00CCE24AC6E326A164D74DC0B4128928FF32603847
310
2BA13128B1252AC747C6BAB984FC68F0B87FE8960A5C09FE86CFB69FBA01504B0304140006080800CC70623BDBABAAF470010000D40300000C0000006662782F636F72652E786D6CC553D16E823014FD95A6AF4B694182CC941A83FA05FB810A9511A125A5257EFE2E82712ECEB8A7F100CD39F7F69E734AF9FADC366850B6
310
AF8DCE7018308C942E4C59EB2AC3DE1D498AD15A706B8CFB56869196ADCAF00863C12B6B7C374385D14E6907A836A59A41D9F7CA615434B0C8705F7CAA5606D23BA8E84F41278B93AC54100640439DE0BDB320004D43C63716C7C399D30917DCFBBA9CD9BA8469F5B156168B24CED3F7248AC8769F27244EB73B92EED8862C
310
B7F13E0C179B3C8F979C8ECD82BBBABDAA2BAC924E9558448CBD9330242CFA08E3154B5651FCC6D215639C8EE5774DBE2B5F6CF2B5768B68963BB5F5588420E442FC700B1139D4CB01F450C1E918227C2E09DF070D8140C84E1E9AAB8F1340832A9CB13130A5F1376A908D57309505ECF2A0DF179C4E9D30F5B239B87E3823
310
7A79C6F31DE1A8A5AEC08474B03C7837EAE4938639B44E5932B833D2C6B6B279CDC613877FA26EE21F4A2A4C63EC7F29A2F301D1F9F7A0E37D145F504B0304140006080800CC70623B9C113CC27E0000009D0000000B0000006662782F636E782E786D6C4DCCDF0A83201C86E15B91DFB94BFB330DD428C8FB886521330DA7
310
6397BF1A1DECE883878F57749FCDA1B7892F1BBC047A23808C7F84D9FA55424E0BE6803A256208E9EF06C84F9B91703228B1C690F78B66B34CD9A5439DF5CF0BFBF65E35BCA1B8D6A5C6F540381E886698B5741C695F9503EBA150A2F8958E3DC3EA0B504B0304140006080800CC70623B7DF2F77C2A010000120200003100
310
00006662782F41393633353835312D344632462D344230382D423046372D3739314545314133324237412F636F72652E786D6C8D51DB8EC22014FC15C2939B0D2DB4B45643319AE817EC0F6041255A68B86CFCFC856D4D76DF7CE190393373060EDB3DC707F856CE6B6B7A480A0C81328395DA5C7B18C3057510EC3873D686
310
3F34088C18550F330C39BB3A1BA7051AAC09CA84841A2BD5020AEF55806078A44B0FFD7053A328440C89E1EFC52486BBB8AA8214A99D789CF9E05200300FC927E4FB4D5B375D43103D5527440FB843077C5AA3F5861C8F645F5787F59E95B390B318B55CE45AA638FAA2957BD7248B390B7A7CC51F9C124149C82B8C378810
310
84AB2F42B7B8DD56F413775B8C5999E9FF4471926F8AA236A1AE96B8B3CC434E5839373893369E1FAF30EA395917409EB7F26AF8801C171837A4A6AC9C89E9F9C9B1A58BA30FD6A5EF5DDDCF894B9AD9B6A59C957943A9FCAE2FD5BC4DFE03504B0304140006080800CC70623BAD7543B64E01000033030000300000006662
310
782F41393633353835312D344632462D344230382D423046372D3739314545314133324237412F636E782E786D6CD593CD6EC32010845F0571AD6CE3D48AD20813A9873E410FBD12D82434182C7EAAE6EDBB2424CD25871E7B41D6EC30B3FA84F9E67BB2E40B4234DE8DB46F1925E094D7C6ED479AD3AE5951B2113C789FEE
310
6C943839C1488B4C05DF079FE72A69D8C96C13AAD6B8631503449F83828872B949AC57D26200B826A308D316B4064D6E46FCDA41C05550DC9E483A00797BFD207EFB092A45DE9514C1BBD22178396BD39D891265658C238DEA00936C654E5E433CB65A26D9F6EDB5EBC14EBF49A45CB856E66048291F6939A9A81BB5C89177
310
38143CA680F4AA299D66A042CEB3354A2684DC9D8D178FE0D9B8B41CAAD720F880EE7EF93C0C18769E099ECC04D5A102C8049A8A05632F4DDF376CF1DE0F6BB65C2F8627B65A33C6BB62177CEBBDAD973006829F89F22E814B54F4BC2BE347F8AA8F681390B50FA73F804400B5F542E796F19FF974E7F78DB802FE05E20750
310
4B0304140006080800CC70623BE75B7789680500003C100000340000006662782F41393633353835312D344632462D344230382D423046372D3739314545314133324237412F6F626A656374732E786D6CAD575B8F9B3818FD2B887D06C22499CB8AA1CA655245D5B455A356FB305264C061D8018C6C3393D95FBFC7600890
310
A4CD5EF210B0B1BFEBF98E3F7B1FF6596ABC522E1296DF9BAE3D320D9A872C4AF2F8DE2CE5CEBA358D0FBEC719939D65A691938CDE9B6ADAF4BD98B3B2D05311DD91329583D9D5FC0F438434A7A611A644887B5384CF34233629258BA878B12322891DEFF6B66BD70BFB62634E8AE781D082709A4B588AF91C528CDA28B73F
310
1C998EEF39EABBEFA97FBD6A7C7E9553F9D3D79FE442923C3C523610337627CB87ABE99D359D4CC6D6E4FACAB5E6ABF9D2726FC6A3C5F56271377BB88362213924694B38DD99FE47C48627A1E7D49F5A8BB5E1A74C0A599ED3B0F21F1E56366B89112D681E218F0915D0D6F17AD41FBA2A369DCF6335D62ABBD39779D5DDD1
310
11D4D8DE3CBB96B2E04FB8202E41051754A1AA8E8F76B4C6DFE810B580B1547F4B84911149794252234D024EF8BBE963A95AE27B3D310A9D5C215C7960FAEE415ED75694C6AFB17BCACA5D99A60A9AA65F217B0BFC53292ACB92BF283FAD0D3621576592CB5BED907C2FA8E9DF794E35E97BEA31BED21FEB401ABB94C44839
310
DCACBF0E1C5DA8DA5B2F4DFFD32AD86F543D9E565E7056502E157C00AD2671CD534549AB752FCA9CDA00677A313F04E51B22FF19E57B300579E3C97EB29F682D92935CEC18CF901B7B54FD8C51F362B56FC72FE0B3C1EAE335EDCCBF5AEC39ADB17DC238973F804BA5E6F6BFE7AF1FB32E523BE9F3BD571418E3631DCA4D48
310
5250CF639223210A9446CA30052EDF057BD35F8329C1ECD84552BF0DC8D18BE7BCE23BFE6BD960AB4A7DE79923A103BEBD80F911CBAA2C60DB19B01CF164A5583B772EE6D3FFA56666CBCDA74DC97724A48F9A58967497E489C4D979006FD7A05E227A1EBDD0F737C623387A9C844D3709995625106D157315F8B8392CD4E0
310
A0B9A720C4BE9829CEF37EA1E13111214D53925356365ADA634861B52519DD27A00AEB808EAF0628E6F435519D446F45CF2C9CF5214F0A15B2F6D06B79DA3EE3CBF7F56780D2F4E7EF73A0F5E5B02A38D07DC852C6B7C1FBB6664213E0C39E3EBA7FF4E1AD23EA2829407C85E586727488B751B2DB9502BC7B228A3FD68B6E
310
A65A22397E690AA8D158D7E404EC8CDA235CC3B7D1898680131CEC2CDF2638C65196279577750F15884AEE19F94199155B92B13297978469D4F8D358DF0AEF7631E28DC8F0D9F437D5D39A83B2231A1D52D543813A824EF8D44BCFF2FA6A31BD1E8DAD87F1CCB526B3879935BF59CDADD5C37479BB1CDD4CA7B3556B516589
310
EF352754B706114D9C885EC9131DE6EFEB43D99AFE2391C2F958179413D7CFEF6B1B6DB1E7600F00DE6E5C67454A339A4BA2E0FBA85ED26F045D454F463DBFCE484C2F90F2E5E3666003662ED8F755951A7D1BECD5B30B550B2785C8E7320B7292A4838DDA71BBC863ED7613CAF659337A3354231D4FF4A182A54904C2898C
310
98B28C4AD0CE056CCF332A80986E571EE9DBC305BB5FEB7E509220A58D25CF042D712A806AC0AD0C657FDEF80D2D9CEAA2EE4D1C76F60BFE74219A06527D6F82DF6412526107381E55E353090704D085B52408A8913C4ED159D79BDA71BB4BC506F4831350EB6F975CD22D69BF7AC49B91A2C0A9DDA3D5CA36AD20FC478E37
310
E61844E2352865EBCB61A275A65283CAAA9DD27703B4102F5AF51EF5F573B75CBB5AD38BC845F7A49F82A0966A49C2E3EA5EA0ECD326CD965F1DB402C6FA8B51A4658C5C5E2EC9E214602E55810345408596591009A82E7E7FFACA19EEA299B14A0081A705CB3296EBC14CDF658DCD336EA6D1136881AAEB87B81AB9EE53D5
310
F5EB8BC8362082DA24122F98680A4E7930C01A0079749CEA14382A0783E5EBA5A10F8C098456A03D6A4AEB6BB881E2513747552A5DB22C7EDAF83BD5528081A365F7FF06504B0304140006080000CC70623B000000000000000000000000350000006662782F41393633353835312D344632462D344230382D423046372D37
310
39314545314133324237412F76657274696365732E62696E504B0304140006080800CC70623BF270F1330600000004000000360000006662782F41393633353835312D344632462D344230382D423046372D3739314545314133324237412F747269616E676C65732E62696E636660600000504B0304140006080000CC7062
310
3B000000000000000000000000370000006662782F41393633353835312D344632462D344230382D423046372D3739314545314133324237412F617474726962757465732E62696E504B0304140006080800CC70623B08DA0BD19000000041010000360000006662782F41393633353835312D344632462D344230382D4230
310
46372D3739314545314133324237412F6469726563746F72792E786D6C858F410AC3201045AF22B36F53E9A60B35CBEEBAE80D244E44489C6234F4F835464A48035D0DF398FF9F8AF63D0E6CC63039F212F8F9020C7D47C6792B21C5FE7403D62A1188E2E60C98D7234A5830286103A55745067B9D86B8A3CF9C7F90C11DE6
310
07FB144396D7B6A82D282E9A152AD114D5EF2CB866EEE831B8EEA07A7BB5A8D7D61A2BAAEB7FD5F70921FF497D00504B0304140006080800CC70623BEDD1DC58FD000000A00100003B0000006662782F41393633353835312D344632462D344230382D423046372D3739314545314133324237412F7265736F75726365732F
310
636F72652E786D6C8D504B6E833010BD0A9A6D65B00922041947112427E8052C33A156828DFCA97AFC9A40A576D7CDCCE87D344F8F9FBFE667F689CE6B6B3A6039850C8DB2A336530731DC4903D95970676DF82583CCC8193B5861107C72362E3BA4AC096842428D1D7107A5F7182053CF7474E0D507CE32973124857FE48B
310
540F3961CEF244279DE03EB81420DB9EAC1384436FA353E879B1B182C7A8C75DA3C7F453DF353A1075D537A7BA6464B8F535A99AE14A9A2BBD90E350DD183B5CFABE3AF262350B1EF4FC9351399401471025A527C218A1E53BAB5A5AB765F5469B96525EACF23FA6B88CFF34456DC2A1DCE36E360F82A5202F42F062ED2BAD
310
579969AFDD8A6F504B010214000A0000080000CC70623B3DEE336E79000000790000001B00000000000000000000000000000000006175746F6465736B2D64657369676E2D7061636B6167652E786D6C504B01021400140006080800CC70623BD486FD9CA0000000F40000001300000000000000000000000000B20000005B
310
436F6E74656E745F54797065735D2E786D6C504B01021400140006080800CC70623B853B8169EB0000007C010000080000000000000000000000000083010000636F72652E786D6C504B01021400140006080800CC70623B55019EA25F0000007C000000070000000000000000000000000094020000636E782E786D6C504B
310
01021400140006080800CC70623BDBABAAF470010000D40300000C00000000000000000000000000180300006662782F636F72652E786D6C504B01021400140006080800CC70623B9C113CC27E0000009D0000000B00000000000000000000000000B20400006662782F636E782E786D6C504B01021400140006080800CC70
310
623B7DF2F77C2A010000120200003100000000000000000000000000590500006662782F41393633353835312D344632462D344230382D423046372D3739314545314133324237412F636F72652E786D6C504B01021400140006080800CC70623BAD7543B64E010000330300003000000000000000000000000000D2060000
310
6662782F41393633353835312D344632462D344230382D423046372D3739314545314133324237412F636E782E786D6C504B01021400140006080800CC70623BE75B7789680500003C10000034000000000000000000000000006E0800006662782F41393633353835312D344632462D344230382D423046372D3739314545
310
314133324237412F6F626A656374732E786D6C504B01021400140006080000CC70623B0000000000000000000000003500000000000000000000000000280E00006662782F41393633353835312D344632462D344230382D423046372D3739314545314133324237412F76657274696365732E62696E504B01021400140006
310
080800CC70623BF270F133060000000400000036000000000000000000000000007B0E00006662782F41393633353835312D344632462D344230382D423046372D3739314545314133324237412F747269616E676C65732E62696E504B01021400140006080000CC70623B0000000000000000000000003700000000000000
310
000000000000D50E00006662782F41393633353835312D344632462D344230382D423046372D3739314545314133324237412F617474726962757465732E62696E504B01021400140006080800CC70623B08DA0BD1900000004101000036000000000000000000000000002A0F00006662782F41393633353835312D344632
310
462D344230382D423046372D3739314545314133324237412F6469726563746F72792E786D6C504B01021400140006080800CC70623BEDD1DC58FD000000A00100003B000000000000000000000000000E1000006662782F41393633353835312D344632462D344230382D423046372D3739314545314133324237412F7265
310
736F75726365732F636F72652E786D6C504B0506000000000E000E0080040000641100000000
  0
XRECORD
  5
1F8
102
{ACAD_REACTORS
330
1F7
102
}
330
1F7
100
AcDbXrecord
280
     1
 70
     1
 90
429727718
  1
30362254-06B7-45E0-A893-8CFA70E3D6BC
310
504B03040A0000080000CC70623B3DEE336E79000000790000001B0000006175746F6465736B2D64657369676E2D7061636B6167652E786D6C3C3F786D6C2076657273696F6E3D22312E302220656E636F64696E673D227574662D3822203F3E3C666F726D6174733E3C666F726D61743E687474703A2F2F736368656D612E
310
6175746F6465736B2E636F6D2F64657369676E2D7061636B6167652F323030393C2F666F726D61743E3C2F666F726D6174733E504B0304140006080800CC70623BD486FD9CA0000000F4000000130000005B436F6E74656E745F54797065735D2E786D6C7D8EC10E82300C865F65E91D8A1E8C310C0EEA1BF002731658846E
310
D98AC1B77784ABF1D8FE5FBFBF75BBCE937A534CCEB38643598122B6FEE978D0B0485F9C41B54DDD7D022595594E1A469170414C76A4D9A4D207E29CF43ECE46F218070CC6BECC4078ACAA135ACF422C856C0E68EA1BF5669944DDD7BCDE7B1F8E415D77AECB980613C2E4AC91FC167A2B244592486606FC29C8FD7F045B9A
310
EF7053A7E60B504B0304140006080800CC70623B1EC5D7A3EB0000007C01000008000000636F72652E786D6C8D90416EC3201045AF82665B6103C6756C6122AB4D4ED00B204C5C94182C03558F5F9C3852BBEB6A467FFE9B197D71FC9E6FE8CBACC17AD7032D0820E3B41FAD9B7A48F1820F808E52ACDEC75F36404ECDA687
310
4D0629A6D5A76597B477D1B89855E747B38B2A041301E95B6E7A08FAD3CCAA50296647B8168BD2573599823EBB0CA76447F43862C7BCCF5EAC59410E4DDD9C7973C2755553CCCFA4C603E3040F1565ED3B1FDE4E432BCA0D9622DAF9795FAF464533826484B498524CD807E51D79ED187F21878E10516EF63F505AC67F42C9
310
BA58B1FDDD071640D2FCC87D2045B96591CB3DA85CB7DCE40F504B0304140006080800CC70623B55019EA25F0000007C00000007000000636E782E786D6C4DCB3B0E80201045D1AD90E915ED2CF8AC45050C11660C8261F98AB1B07AC9C97D42D718D865D3E909258CFD00CCE24AC6E326A164D74DC0B4128928FF32603847
310
2BA13128B1252AC747C6BAB984FC68F0B87FE8960A5C09FE86CFB69FBA01504B0304140006080800CC70623B8C9102E971010000D40300000C0000006662782F636F72652E786D6CC5535B6E833010BC8AE5DF0A6C08340F1947A84D4ED00B38C6A128602363A31CBFCB234A53A551FA553EC09AD9F5CE8C31DB9E9B1AF5CA
310
7695D1198E428A91D2D214952E33ECDD315861B4E5CC1AE3BE9561A445A3323CC098B3D21ADFCE9034DA29ED00D5A6503328BA4E398C640D8B0C77F253352214DE4145770A5B214FA2546114020D759C75CE8200340D19DE981F0F6746269C33EFAB6266AB02A655C74A59CCF365BADC27CB5D902ED22848F6340DF238A141
310
BE88E2F57B92BFEDF23523433367AE6A2EEAA455C2A902F398D2751045018D3FA264435F3771F242571B4A1919CA6F9A7C5B3CD9E42BED16F12C776AEB308F40C848FC700B1139D4891EF410CEC810227CC6846F8386402064270EF5C5C709A05E49676C024C61FC95EA45ED154CA5211D1FF4FB8291A913A68E9B83EBBB33
310
E2A7673CDE118E5AE8124C0807CB8377834E366998436B950D7A7746DAD846D4CFD978E0F04FD455FC5D49D2D4C6FE9722321F10997F0F32DC47FE05504B0304140006080800CC70623BFFEA85907E0000009D0000000B0000006662782F636E782E786D6C4DCCD10A83201886E15B91FFDC95D95A811AB6F23E625948A6C3
310
E9D8E5AF46073BFAE0E1E365ED67B3E8ADC3CB78C7815C7240DA3DFC64DCC221C519D7805AC182F7F1EF06C88D9BE6703008B6049F9E274D7A1E938DBB5AE3D6131B2589BA0D3D965551E0B2EA732C9B9A624AAEB41E3A557677029960D9AFB4EF11165F504B0304140006080800CC70623B4FEEA4082C0100001202000031
310
0000006662782F39464131463745442D413632322D343644302D413938332D3331353338454246344243312F636F72652E786D6C8D515B6EC32010BC0AE2AB55850DD871ED0813254D72825EC00192A2C460F1A872FC42ED48ED5F7E00CDCECCCEB26C731F6FE05B39AFADE921293004CA082BB5B9F43086336A21D870E6AC
310
0D7F68109861543DCC30E4ECE26C9C164858139409093556AA051CBC570102714B8F1E7AF1A5C6A11862480C7F2DA6415C878B2A4891CA89C7990F2E050073937C42DE1DB7E4F87ED8A36D4329AA9B3D46DBAEAD504556557BD81DEBDD0761E52CE42C462D17B996298E3E6BE59E35C962CE821E1FF18553435012728A7187
310
0841987E927A8D9B35ADDF70BBC6989599FE4F1427F9A4286A132ABAC49D651EF234CD5CE04CDA78BA3DC2A8FB645D00B9DF8B57E215725C60BCA2A463E54C4CE327C7A65E1C7DB02E7DEFCBF594B864C5CA6CDBD49C957943E9FA5D5FBAF336F90F504B0304140006080800CC70623BAD7543B64E01000033030000300000
310
006662782F39464131463745442D413632322D343644302D413938332D3331353338454246344243312F636E782E786D6CD593CD6EC32010845F0571AD6CE3D48AD20813A9873E410FBD12D82434182C7EAAE6EDBB2424CD25871E7B41D6EC30B3FA84F9E67BB2E40B4234DE8DB46F1925E094D7C6ED479AD3AE5951B2113C
310
789FEE6C943839C1488B4C05DF079FE72A69D8C96C13AAD6B8631503449F83828872B949AC57D26200B826A308D316B4064D6E46FCDA41C05550DC9E483A00797BFD207EFB092A45DE9514C1BBD22178396BD39D891265658C238DEA00936C654E5E433CB65A26D9F6EDB5EBC14EBF49A45CB856E66048291F6939A9A81BB5
310
C8917738143CA680F4AA299D66A042CEB3354A2684DC9D8D178FE0D9B8B41CAAD720F880EE7EF93C0C18769E099ECC04D5A102C8049A8A05632F4DDF376CF1DE0F6BB65C2F8627B65A33C6BB62177CEBBDAD973006829F89F22E814B54F4BC2BE347F8AA8F681390B50FA73F804400B5F542E796F19FF974E7F78DB802FE05
310
E207504B0304140006080800CC70623B16AB87BA640500003C100000340000006662782F39464131463745442D413632322D343644302D413938332D3331353338454246344243312F6F626A656374732E786D6CAD575B6FA33818FD2B887DE6924B3BED8A326A92B68A663B534DD4D13E548A0C38942D60649B369D5FBFC7
310
600890A493BDE42160637FD7F31D7FF63E6FB3D478A55C242CBF3247B66B1A340F5994E4F19559CA8D75611A9F7D8F33263BCB4C232719BD32D5B4E97B316765A1A722BA21652A07B3B7B33F0D11D29C9A46981221AE4C113ED38CD8A4942CA2E2C58E882476BCD9DA23BB5ED8171B73523C0F841684D35CC252CCE79062D4
310
468DFA43D7747CCF51DF7D4FFDEB5593E3AB9CCA9FBEFE241792E4E19EB28198C968BAB8199F5D5A67D3E9C49A9E8F47D6EC76B6B0469F26EEFC7C3EBFBCBEB98462213924694B38DD98FE1D62C393D073EA4FADC5DAF04326852CCF6958F90F0F2B9BB5C48816348F90C7840A68EB78EDF68723159BCEE7891A6B95DDE9D3
310
BCEAEEE8086A6C6F9E5D4B59F0175C10A7A0820BAA5055C7473B5AE3CFDD452D602CD5DF12616444529E90D448938013FE6EFA58AA96F85E4F8C42275708571E98FE6827AF6B2B4AE3D7D83D64E5A64C53054DD3AF90BD06FEA9149565C94FCA0F6B834DC85599E4F2423B24DF0B6AFA979E534DFA9E7A4CC6FA631D486393
310
921829879BF5D781A373557BCB85E97FB90DB62B558F8795179C15944B051F40AB495CF35451D26A4727654E6D8033BD98EF82F21D91FF8AF2DD9982BCF1643BDD4EB516C9492E368C67C88DED563FC36D5EACF66DFF057C3658BDBFA69DF9578B3DA735B64F18C7F20770A9D45CFCF7FCF563D6456A277DBEF78A02637CA2
310
43B90A490AEAB94F72244481D24819A6C0E59B606BFA4B3025981DBB48EAB701D97BF19C577CC77F2D1B6C55A9EF3C732474C0B727303F625995056C3B02963D9EAC146BE78EC5FCEC7FA999EBC5EACBAAE41B12D27B4D2C0BBA49F244E2ECDC81B76B502F113D8F5EE8FB1BE3111CDD4FC2AA9B844CAB1288B68AB90A7CDC
310
1C166AB0D3DC5310625FCC14E779BFD0709F8890A629C9292B1B2DED31A4B0DA928CEE135085754027E3018A397D4D5427D15BD1330B677DC8934285AC3DF45A9EB68FF8F2B8FC0A509AFEECFD0FF2DE25CC6047F7214B195F07EFEB9A094D800F7BFAE8FED187B78EA8A3A400F115961BCAD1215E47C966530AF0EE8128FE
310
58CEBB996A8964FFA529A046635D9353B0336A8F700DDF46271A024E70B0B37C9DE01847591E54DED53D54202AB947E4076556AC49C6CA5C9E1226B7F1A7B1BE15DEED62C41B91E1B3E9AFAAA735036547343A925075041DF0A9979E893B391F8FCFA6967B3EFB644DCF6E5CEBFAE272625DCC6FAF3FB93793C5F90CE1EF57
310
407342756B10D1C489E8953CD1617E5CEECAD6F4EF8914CE5D5D504E5C3F1F9736DA62CFC11E00BCDDB8CC8A9466349744C1F75EBDA4DF09BA8A9E8C7A7E9991989E20E5DBDD6A6003664ED8F7A04A8DBE0DF6EAD9B9AA858342E47399053949D2C146EDB85DE4B176BB0965FBAC19BD19AA918E27FA50C1D22402E144464C
310
59462568E704B6E71915404CB72B8FF4EDE184DDAF753F284990D2C6926782963815403548A70C657FDEF80D2D9CEAA2AE4C1C76F60BFE74219A06527D6582DF6412526107381E55E353090704D085B52408D0933C4ED159D79BDA71BB4BC506F4831350EB6F979CD22D69BF7AC49B91A2C0A9DDA3D5CA36AD20FC478E37E6
310
1844E2352865EBCB6EA275A652E3836BE04EFB400BF1A2556F515F1FBB35B2AB35BD889C744FFA1004B5544B121E57F70215746DD2F5E2C1412B602CBF19455AC6C8E5E9922C4E01E65215385004546899059180EAFCF7A707CE7017CD8CDB0410789AB32C63B91E5CEBBBACB17AC6CD347A022D5075FD106377347AAABA7E
310
7D11590744509B44E205134DC1290F06580320F78E537D3D73540E06CB970B431F185308AD40BBD794D6D77003C5A36E8EAA54BA64597CD8F83BD552A080A365F7FF06504B0304140006080000CC70623B000000000000000000000000350000006662782F39464131463745442D413632322D343644302D413938332D3331
310
353338454246344243312F76657274696365732E62696E504B0304140006080800CC70623BF270F1330600000004000000360000006662782F39464131463745442D413632322D343644302D413938332D3331353338454246344243312F747269616E676C65732E62696E636660600000504B0304140006080000CC70623B
310
000000000000000000000000370000006662782F39464131463745442D413632322D343644302D413938332D3331353338454246344243312F617474726962757465732E62696E504B0304140006080800CC70623B08DA0BD19000000041010000360000006662782F39464131463745442D413632322D343644302D413938
310
332D3331353338454246344243312F6469726563746F72792E786D6C858F410AC3201045AF22B36F53E9A60B35CBEEBAE80D244E44489C6234F4F835464A48035D0DF398FF9F8AF63D0E6CC63039F212F8F9020C7D47C6792B21C5FE7403D62A1188E2E60C98D7234A5830286103A55745067B9D86B8A3CF9C7F90C11DE607
310
FB144396D7B6A82D282E9A152AD114D5EF2CB866EEE831B8EEA07A7BB5A8D7D61A2BAAEB7FD5F70921FF497D00504B0304140006080800CC70623B0D6EF93BFE000000A00100003B0000006662782F39464131463745442D413632322D343644302D413938332D3331353338454246344243312F7265736F75726365732F63
310
6F72652E786D6C8D50596E833010BD0A9ADFCA60B334011947A8694ED00B586642AC041B79A97AFC9A40A5F6AF3F33A3B7689E1E3F7DCD8FEC139DD7D6F4C0720A191A65476DA61E62B892236427C19DB5E1970C322367EC618541F0C9D9B8EC90B226A009093576C41D94DE63804C3DD2D18357379C652E63480A7FCF17A9
310
EE72C29CE5894E3AC17D702940B63D59270887DE46A7D0F36263058F518FBB468FE9A7BE6A7420864373B8D4873369AA8691FA421B3294352543C5CAF65C0F6FEF43CB8BD52C78D0F34F46E550061C419494B6843142CB0F5677F4B52BEB177AEC28E5C52AFF638ACBF84F53D42654E51E77B379102C05791282176B5F693D
310
CB4C7BED567C03504B010214000A0000080000CC70623B3DEE336E79000000790000001B00000000000000000000000000000000006175746F6465736B2D64657369676E2D7061636B6167652E786D6C504B01021400140006080800CC70623BD486FD9CA0000000F40000001300000000000000000000000000B20000005B
310
436F6E74656E745F54797065735D2E786D6C504B01021400140006080800CC70623B1EC5D7A3EB0000007C010000080000000000000000000000000083010000636F72652E786D6C504B01021400140006080800CC70623B55019EA25F0000007C000000070000000000000000000000000094020000636E782E786D6C504B
310
01021400140006080800CC70623B8C9102E971010000D40300000C00000000000000000000000000180300006662782F636F72652E786D6C504B01021400140006080800CC70623BFFEA85907E0000009D0000000B00000000000000000000000000B30400006662782F636E782E786D6C504B01021400140006080800CC70
310
623B4FEEA4082C0100001202000031000000000000000000000000005A0500006662782F39464131463745442D413632322D343644302D413938332D3331353338454246344243312F636F72652E786D6C504B01021400140006080800CC70623BAD7543B64E010000330300003000000000000000000000000000D5060000
310
6662782F39464131463745442D413632322D343644302D413938332D3331353338454246344243312F636E782E786D6C504B01021400140006080800CC70623B16AB87BA640500003C1000003400000000000000000000000000710800006662782F39464131463745442D413632322D343644302D413938332D3331353338
310
454246344243312F6F626A656374732E786D6C504B01021400140006080000CC70623B0000000000000000000000003500000000000000000000000000270E00006662782F39464131463745442D413632322D343644302D413938332D3331353338454246344243312F76657274696365732E62696E504B01021400140006
310
080800CC70623BF270F133060000000400000036000000000000000000000000007A0E00006662782F39464131463745442D413632322D343644302D413938332D3331353338454246344243312F747269616E676C65732E62696E504B01021400140006080000CC70623B0000000000000000000000003700000000000000
310
000000000000D40E00006662782F39464131463745442D413632322D343644302D413938332D3331353338454246344243312F617474726962757465732E62696E504B01021400140006080800CC70623B08DA0BD190000000410100003600000000000000000000000000290F00006662782F39464131463745442D413632
310
322D343644302D413938332D3331353338454246344243312F6469726563746F72792E786D6C504B01021400140006080800CC70623B0D6EF93BFE000000A00100003B000000000000000000000000000D1000006662782F39464131463745442D413632322D343644302D413938332D3331353338454246344243312F7265
310
736F75726365732F636F72652E786D6C504B0506000000000E000E0080040000641100000000
  0
XRECORD
  5
175
102
{ACAD_REACTORS
330
173
102
}
330
173
100
AcDbXrecord
280
     1
270
     1
271
     1
  0
XRECORD
  5
174
102
{ACAD_REACTORS
330
173
102
}
330
173
100
AcDbXrecord
280
     1
270
     1
271
     1
  0
XRECORD
  5
1FB
102
{ACAD_REACTORS
330
173
102
}
330
173
100
AcDbXrecord
280
     1
 70
     0
 90
1673772943
  1
ECE7A1D2-D628-4531-984C-D00F80459256
310
504B03040A0000080000CC70623B3DEE336E79000000790000001B0000006175746F6465736B2D64657369676E2D7061636B6167652E786D6C3C3F786D6C2076657273696F6E3D22312E302220656E636F64696E673D227574662D3822203F3E3C666F726D6174733E3C666F726D61743E687474703A2F2F736368656D612E
310
6175746F6465736B2E636F6D2F64657369676E2D7061636B6167652F323030393C2F666F726D61743E3C2F666F726D6174733E504B0304140006080800CC70623BD486FD9CA0000000F4000000130000005B436F6E74656E745F54797065735D2E786D6C7D8EC10E82300C865F65E91D8A1E8C310C0EEA1BF002731658846E
310
D98AC1B77784ABF1D8FE5FBFBF75BBCE937A534CCEB38643598122B6FEE978D0B0485F9C41B54DDD7D022595594E1A469170414C76A4D9A4D207E29CF43ECE46F218070CC6BECC4078ACAA135ACF422C856C0E68EA1BF5669944DDD7BCDE7B1F8E415D77AECB980613C2E4AC91FC167A2B244592486606FC29C8FD7F045B9A
310
EF7053A7E60B504B0304140006080800CC70623BD9DDAED0EC0000007C01000008000000636F72652E786D6C8D90416EC3201045AF82665B61836D9CD8C2444DD39CA01740405C94182C03558F5F9C3852BBEB6A467FFE9B197D7EF89E6EE8CB2CC17A37002D0820E394D7D68D03A478C17B4007C117EFE32F1B20272733C0
310
2A83E0E3E2D3BC49CABB685CCCAAF3DA6CA20CC14440EA969B0182FA34932C648AD911AEC52CD5558EA6A0CF2EC329598D1E47ACCEFBECC59A050463A7EA5833865FEBDD0E37353BE3EE8DBDE3F6786A48D375FBF6CC78B9C282473B3DEFABC5C86834888A900E538A49F5419B9EB47DD5BC907D4F082F57FB1F28CDFA9F50
310
B22ED6D5F6EE030B20687EE43E10BC5CB3C8E51E54AE6B6EE207504B0304140006080800CC70623B55019EA25F0000007C00000007000000636E782E786D6C4DCB3B0E80201045D1AD90E915ED2CF8AC45050C11660C8261F98AB1B07AC9C97D42D718D865D3E909258CFD00CCE24AC6E326A164D74DC0B4128928FF326038
310
472BA13128B1252AC747C6BAB984FC68F0B87FE8960A5C09FE86CFB69FBA01504B0304140006080800CC70623BA24EB22D72010000D40300000C0000006662782F636F72652E786D6CC5535B6E833010BC8AE5DF0A6C5E49888CA3A6694ED00B38E05014B091B1518EDFE511A5A9D228FD2A1F60CDEC7A67C6986DCE4D8D7A
310
69BA4AAB0C073EC548AA5C17952A33ECECD15B61B4E1CC686DBF9561A44423333CC098B3D268D7CE50AE9595CA02AA74216750749DB418E5352C32DCE59FB211BE70162ABA93DF8AFC244AE9073ED050C759670D0840D390E18DF9F1706664C23973AE2A66B62A605A75ACA4C13C4976E1364A12EF355A2EBD384AF65EFA96
310
BC7B8BED2EA6719AAE16FB8491A199335B351775B991C2CA02F390D2D40B028F861F41BCA68B7518BFD0D59A524686F29B26D7164F36B94AD9289CE54E6D1DE6010819891F6E21228B3AD1831EC219194284CF98F06DD01008846CC5A1BEF83801D4CBDC6A1303536877A57A513B0953A94FC707FDBE6064EA84A9E3E6E0FA
310
EE8CF0E9198F7784A316AA0413C2C2F2E0ECA0934D1AE6D05A69BCDE9E91D2A611F573361E38FC1375157F5752AE6B6DFE4B11990F88CCBF0719EE23FF02504B0304140006080800CC70623B408A7D3B7C0000009D0000000B0000006662782F636E782E786D6C4DCCD10A83201886E15B91FFDC552A92A0064DBC8F581632
310
D3703A76F9ABD1C18E3E78F878E5F0D9027ABBFCF2292AE86E2D20171F69F6715550CB827B40839639A5F2770314A7CD293819B45C73AAFB45B35BA61ACAA1C1C7E7855C58C15BC331339661262CC762340413D68D77DA5B42298546CBE6573AF60CEB2F504B0304140006080800CC70623B449FB9BD290100001202000031
310
0000006662782F36394639363044362D344446342D343946362D394244322D3234314243333846323333332F636F72652E786D6C8D515B6EC32010BC0AE22B55850D98B871848994463E412FE002495162B07854397EA176A4F62F3F2C9A9D991D587EB84F37F0AD7D30CEF6905418026DA553C65E7A98E219ED203808EE9D
310
8B7F6810D871D23D2C3014FCE25D9A57483A1BB58D19B54EE9151C43D0110279CB971E06F9A5A7B11A53CC8C70ADE6515EC78BAE4895DB992778883E0700CB907242D17643D7E2538BD869608875438BBAE38922CAC8F1BDD90DB4691A5E2F42C153326A951B95E398B3D1FE599322163C9AE9115F7A3D46ADA0A018778810
310
84E907617BDCEE297BC5BB3DC6BC2EF47FA234AB2745C9D8D8D035EE220B50105E2F0DC1954B9FB747187D9F9D8FA0CCDB042D5FA0C015C65B42DF78BD10F3F3B363CB56C7109DCFDFBBB97E662ED92EB62D13BC2E1BCAE5777DB9966D8A1F504B0304140006080800CC70623BAD7543B64E01000033030000300000006662
310
782F36394639363044362D344446342D343946362D394244322D3234314243333846323333332F636E782E786D6CD593CD6EC32010845F0571AD6CE3D48AD20813A9873E410FBD12D82434182C7EAAE6EDBB2424CD25871E7B41D6EC30B3FA84F9E67BB2E40B4234DE8DB46F1925E094D7C6ED479AD3AE5951B2113C789FEE
310
6C943839C1488B4C05DF079FE72A69D8C96C13AAD6B8631503449F83828872B949AC57D26200B826A308D316B4064D6E46FCDA41C05550DC9E483A00797BFD207EFB092A45DE9514C1BBD22178396BD39D891265658C238DEA00936C654E5E433CB65A26D9F6EDB5EBC14EBF49A45CB856E66048291F6939A9A81BB5C89177
310
38143CA680F4AA299D66A042CEB3354A2684DC9D8D178FE0D9B8B41CAAD720F880EE7EF93C0C18769E099ECC04D5A102C8049A8A05632F4DDF376CF1DE0F6BB65C2F8627B65A33C6BB62177CEBBDAD973006829F89F22E814B54F4BC2BE347F8AA8F681390B50FA73F804400B5F542E796F19FF974E7F78DB802FE05E20750
310
4B0304140006080800CC70623B8D05915C650500003B100000340000006662782F36394639363044362D344446342D343946362D394244322D3234314243333846323333332F6F626A656374732E786D6CAD575B6FA33814FE2B887D06429276DA1565D4266D158D3A339A6846FB502932E050B66023DB74D2FDF5FB190C01
310
9276B2973C046C8ECFF53B17071F77456EBD502133CEAE6CDF9DD81665314F32965ED995DA3A17B6F5310C04E7AA47665B8C14F4CAD6DB7618A48257A5D94AE89654B91AEDDEDDFC61C998326A5B714EA4BCB265FC440BE2924AF184CA6737218AB8E976E7FA6E4338649B0A523E8D98964450A6A029F619B8588D52FE7039
310
B1BD30F0F4F730D0FF866AF6369557DB33949F31A9088B0F848DD8CCFCF9F2767A76E99CCDE733677E3EF59D9BBB9BA5E37F984D16E78BC5E5F5ED25044B25C0C96822E8D60EEFE11B91C581D77CEA34368A1F5329E68CD1B8B61F16D63A1B8E092D294B10C78C4A48EB593D192E7DED9BDEE7995E1B91FDEDD3ACEA9FE831
310
6A756F9F7D4D79F4274C90A7A04248AA51D5F8C718DAE06FB2F75AC4796EBE65D22A88A22223B995679120E2D50E41AA49C260C046A35368846B0BECD0DFF3EBEB8AD4F835768F69B9ADF25C43D30E6B646F807FAA64AD59F61715C7A54127C4AACA98BA3006A9D792DAE165E0D59B61A01FB3A9F9D838D2DAE62445C86166
310
F37564E842E7DE6A69879FEEA2DD5AE7E371E1A5E025154AC307D06A03D73EB5978C58FFA4C8E9033066E0F3BD53BEC1F39F91BE7B55103791EDE6BBB991A2046172CB4581D8B893FA674DDA17A77B3B7C413D1B511FD2743BFF8A38F03A658705E3ADF8015C3A3417FF3D7E439FF591DA0B5F18BC20C1B8981957AE6392A3
310
F43C640C01D1A0B4728E2DD4F26DB4B3C3152A252A3B4E913CEC1C72F012782FF88EFF8637AA552DBEF76408E8A8DE9E50F9E1CB3A2DA0DB1B6039A893B56063DC5B3E3FFB5F72E67AB9FEB4AEC496C4F4C1149625DD662C53E89D7BF0F6151A046260D1337DFDC94502430F83B0EE07A130A224BCAD7DAE1D9FB6CD422FF6
310
920702629C4BB9AE79C12F243C6432A6794E18E5552BA56B431AAB5D91317302B2B071E86C3A42B1A02F999E24061403B5D0EB639195DA655DD3EBEAB4FB862DDF579F014AD0E73C22F99E28DA57FB98E75C6CA2D74D53086D600F4786E0FE3144B771A8A7B900F03594DB8A633CBC49B2EDB69228BB479CF863B5E807AAAB
310
23872F6DFEB4129B949CA33823F58830E86D65621E10047D9DB34D862E8EAC3C2ABC2F7B2C40D67CDFE01F5545B92105AF983AC54D93D69E56FB8E797F88913F898A9FEC705D3F9D1B54EC8426FB500D40A03BD0119B06E1B95DDC7EB8F6975367793EBD70E66733DFB9BC982F9CE564727731999F5D4ECFCE3B8D6A4DC2A0
310
6D50FD148437D110834A64C6CDDF57FBACB5C307A2A477DFE4939736CFEF2B175371E0E10CF0DD1D5C15654E0BCA14D1E87DD02FF93782A162C0A3D95F1524A52770F972BF1EE9809D13CE7DD599467F8ECE9ADD85CE85A34CD45355448C64F9E8A031DC2D596ACC6E5DD93D9B82DE2EF5CAF81363A8E47996A0DE24564A79
310
4115AACE09C55E14540231FDA13C319787134EBF34E3A022514E5B4D9E0826E25C02D5805B15ABE1BEF51B26383D445DD9E875EE33FE4C22DA16427D65A3BCA92CA6D28DD01DF5DC53330704308475351050232CCD31583787BA75774AFB06E5070DD0C8EF484E19968C5D83BA5B90B244D31E54D55A372320FE4786B7EA58
310
44E135AA5467CB7EA333A61683CC6A8C3257034C10CF46F40EF9F5BE59BE5BD30C3C72D235E95D10345C1D45445A5F0BB47E46A5EBE5570F9380B5FA629579952296A773720405982B9DE04011506178964401AA8BDF1FBF0A8EAB6861DD6580C0E38217056766716DAEB2D6FA0917D3E4116581EADB879C4E7CFFB11EFACD
310
3D641311495D92C8676CB409A72D18610D803CE8A626049E8EC1887CB5B44CC39883690DDA8399B4B9855B481E7D71D4A9D22F96E5BB73BF5793020C02137BF837504B0304140006080000CC70623B000000000000000000000000350000006662782F36394639363044362D344446342D343946362D394244322D32343142
310
43333846323333332F76657274696365732E62696E504B0304140006080800CC70623BF270F1330600000004000000360000006662782F36394639363044362D344446342D343946362D394244322D3234314243333846323333332F747269616E676C65732E62696E636660600000504B0304140006080000CC70623B0000
310
00000000000000000000370000006662782F36394639363044362D344446342D343946362D394244322D3234314243333846323333332F617474726962757465732E62696E504B0304140006080800CC70623B08DA0BD19000000041010000360000006662782F36394639363044362D344446342D343946362D394244322D
310
3234314243333846323333332F6469726563746F72792E786D6C858F410AC3201045AF22B36F53E9A60B35CBEEBAE80D244E44489C6234F4F835464A48035D0DF398FF9F8AF63D0E6CC63039F212F8F9020C7D47C6792B21C5FE7403D62A1188E2E60C98D7234A5830286103A55745067B9D86B8A3CF9C7F90C11DE607FB14
310
4396D7B6A82D282E9A152AD114D5EF2CB866EEE831B8EEA07A7BB5A8D7D61A2BAAEB7FD5F70921FF497D00504B0304140006080800CC70623BCA768048FE000000A00100003B0000006662782F36394639363044362D344446342D343946362D394244322D3234314243333846323333332F7265736F75726365732F636F72
310
652E786D6C8D50596E833010BD0A9ADFCA60D600328E9AA639412F609909B1126CE4A5EAF16B0295DABFFECC8CDEA2797AECF8353F924FB44E193D409E5248504B332A3D0D10FC95B4901C39B3C6F85F3248B49871801506CE266BC2B243D2688FDA47549B11775038871E12F988C7004EDE7016A9083E2ADC3D5D84BC8B09
310
D33C8D74D471E6BC8D0192EDC93A815B742658898E651BCB59086ADC356A8C3FD555A1055ED7E7E254D615792D0F075295F585746FF53B694EE78A565DD736979A65AB9933AFE69F8CD2A2F038022F28ED489E135A7CE4554F9BBEA85E68DB53CAB255FEC71496F19FA6A0B42F8B3DEE6673C0F318E4497096AD7DC5F52C33
310
EEB55BFE0D504B010214000A0000080000CC70623B3DEE336E79000000790000001B00000000000000000000000000000000006175746F6465736B2D64657369676E2D7061636B6167652E786D6C504B01021400140006080800CC70623BD486FD9CA0000000F40000001300000000000000000000000000B20000005B436F
310
6E74656E745F54797065735D2E786D6C504B01021400140006080800CC70623BD9DDAED0EC0000007C010000080000000000000000000000000083010000636F72652E786D6C504B01021400140006080800CC70623B55019EA25F0000007C000000070000000000000000000000000095020000636E782E786D6C504B0102
310
1400140006080800CC70623BA24EB22D72010000D40300000C00000000000000000000000000190300006662782F636F72652E786D6C504B01021400140006080800CC70623B408A7D3B7C0000009D0000000B00000000000000000000000000B50400006662782F636E782E786D6C504B01021400140006080800CC70623B
310
449FB9BD290100001202000031000000000000000000000000005A0500006662782F36394639363044362D344446342D343946362D394244322D3234314243333846323333332F636F72652E786D6C504B01021400140006080800CC70623BAD7543B64E010000330300003000000000000000000000000000D20600006662
310
782F36394639363044362D344446342D343946362D394244322D3234314243333846323333332F636E782E786D6C504B01021400140006080800CC70623B8D05915C650500003B10000034000000000000000000000000006E0800006662782F36394639363044362D344446342D343946362D394244322D32343142433338
310
46323333332F6F626A656374732E786D6C504B01021400140006080000CC70623B0000000000000000000000003500000000000000000000000000250E00006662782F36394639363044362D344446342D343946362D394244322D3234314243333846323333332F76657274696365732E62696E504B010214001400060808
310
00CC70623BF270F13306000000040000003600000000000000000000000000780E00006662782F36394639363044362D344446342D343946362D394244322D3234314243333846323333332F747269616E676C65732E62696E504B01021400140006080000CC70623B00000000000000000000000037000000000000000000
310
00000000D20E00006662782F36394639363044362D344446342D343946362D394244322D3234314243333846323333332F617474726962757465732E62696E504B01021400140006080800CC70623B08DA0BD190000000410100003600000000000000000000000000270F00006662782F36394639363044362D344446342D
310
343946362D394244322D3234314243333846323333332F6469726563746F72792E786D6C504B01021400140006080800CC70623BCA768048FE000000A00100003B000000000000000000000000000B1000006662782F36394639363044362D344446342D343946362D394244322D3234314243333846323333332F7265736F
310
75726365732F636F72652E786D6C504B0506000000000E000E0080040000621100000000
  0
XRECORD
  5
176
102
{ACAD_REACTORS
330
173
102
}
330
173
100
AcDbXrecord
280
     1
270
     1
271
     1
  0
XRECORD
  5
177
102
{ACAD_REACTORS
330
173
102
}
330
173
100
AcDbXrecord
280
     1
270
     1
271
     1
  0
CELLSTYLEMAP
  5
6C04
102
{ACAD_REACTORS
330
162
102
}
330
162
100
AcDbCellStyleMap
 90
        3
300
CELLSTYLE
  1
TABLEFORMAT_BEGIN
 90
        5
170
     1
 91
        0
 92
    32768
 62
   257
 93
        1
300
CONTENTFORMAT
  1
CONTENTFORMAT_BEGIN
 90
        0
 91
        0
 92
      512
 93
        0
300

 40
0.0
140
1.0
 94
        5
 62
     0
340
11
144
6.0
309
CONTENTFORMAT_END
171
     1
301
MARGIN
  1
CELLMARGIN_BEGIN
 40
1.5
 40
1.5
 40
1.5
 40
1.5
 40
4.5
 40
4.5
309
CELLMARGIN_END
 94
        6
 95
        1
302
GRIDFORMAT
  1
GRIDFORMAT_BEGIN
 90
        0
 91
        1
 62
     0
 92
       -2
340
14
 93
        0
 40
1.125
309
GRIDFORMAT_END
 95
        2
302
GRIDFORMAT
  1
GRIDFORMAT_BEGIN
 90
        0
 91
        1
 62
     0
 92
       -2
340
14
 93
        0
 40
1.125
309
GRIDFORMAT_END
 95
        4
302
GRIDFORMAT
  1
GRIDFORMAT_BEGIN
 90
        0
 91
        1
 62
     0
 92
       -2
340
14
 93
        0
 40
1.125
309
GRIDFORMAT_END
 95
        8
302
GRIDFORMAT
  1
GRIDFORMAT_BEGIN
 90
        0
 91
        1
 62
     0
 92
       -2
340
14
 93
        0
 40
1.125
309
GRIDFORMAT_END
 95
       16
302
GRIDFORMAT
  1
GRIDFORMAT_BEGIN
 90
        0
 91
        1
 62
     0
 92
       -2
340
14
 93
        0
 40
1.125
309
GRIDFORMAT_END
 95
       32
302
GRIDFORMAT
  1
GRIDFORMAT_BEGIN
 90
        0
 91
        1
 62
     0
 92
       -2
340
14
 93
        0
 40
1.125
309
GRIDFORMAT_END
309
TABLEFORMAT_END
  1
CELLSTYLE_BEGIN
 90
        1
 91
        1
300
_TITLE
309
CELLSTYLE_END
300
CELLSTYLE
  1
TABLEFORMAT_BEGIN
 90
        5
170
     1
 91
        0
 92
        0
 62
   257
 93
        1
300
CONTENTFORMAT
  1
CONTENTFORMAT_BEGIN
 90
        0
 91
        0
 92
      512
 93
        0
300

 40
0.0
140
1.0
 94
        5
 62
     0
340
11
144
4.5
309
CONTENTFORMAT_END
171
     1
301
MARGIN
  1
CELLMARGIN_BEGIN
 40
1.5
 40
1.5
 40
1.5
 40
1.5
 40
4.5
 40
4.5
309
CELLMARGIN_END
 94
        6
 95
        1
302
GRIDFORMAT
  1
GRIDFORMAT_BEGIN
 90
        0
 91
        1
 62
     0
 92
       -2
340
14
 93
        0
 40
1.125
309
GRIDFORMAT_END
 95
        2
302
GRIDFORMAT
  1
GRIDFORMAT_BEGIN
 90
        0
 91
        1
 62
     0
 92
       -2
340
14
 93
        0
 40
1.125
309
GRIDFORMAT_END
 95
        4
302
GRIDFORMAT
  1
GRIDFORMAT_BEGIN
 90
        0
 91
        1
 62
     0
 92
       -2
340
14
 93
        0
 40
1.125
309
GRIDFORMAT_END
 95
        8
302
GRIDFORMAT
  1
GRIDFORMAT_BEGIN
 90
        0
 91
        1
 62
     0
 92
       -2
340
14
 93
        0
 40
1.125
309
GRIDFORMAT_END
 95
       16
302
GRIDFORMAT
  1
GRIDFORMAT_BEGIN
 90
        0
 91
        1
 62
     0
 92
       -2
340
14
 93
        0
 40
1.125
309
GRIDFORMAT_END
 95
       32
302
GRIDFORMAT
  1
GRIDFORMAT_BEGIN
 90
        0
 91
        1
 62
     0
 92
       -2
340
14
 93
        0
 40
1.125
309
GRIDFORMAT_END
309
TABLEFORMAT_END
  1
CELLSTYLE_BEGIN
 90
        2
 91
        1
300
_HEADER
309
CELLSTYLE_END
300
CELLSTYLE
  1
TABLEFORMAT_BEGIN
 90
        5
170
     1
 91
        0
 92
        0
 62
   257
 93
        1
300
CONTENTFORMAT
  1
CONTENTFORMAT_BEGIN
 90
        0
 91
        0
 92
      512
 93
        0
300

 40
0.0
140
1.0
 94
        2
 62
     0
340
11
144
4.5
309
CONTENTFORMAT_END
171
     1
301
MARGIN
  1
CELLMARGIN_BEGIN
 40
1.5
 40
1.5
 40
1.5
 40
1.5
 40
4.5
 40
4.5
309
CELLMARGIN_END
 94
        6
 95
        1
302
GRIDFORMAT
  1
GRIDFORMAT_BEGIN
 90
        0
 91
        1
 62
     0
 92
       -2
340
14
 93
        0
 40
1.125
309
GRIDFORMAT_END
 95
        2
302
GRIDFORMAT
  1
GRIDFORMAT_BEGIN
 90
        0
 91
        1
 62
     0
 92
       -2
340
14
 93
        0
 40
1.125
309
GRIDFORMAT_END
 95
        4
302
GRIDFORMAT
  1
GRIDFORMAT_BEGIN
 90
        0
 91
        1
 62
     0
 92
       -2
340
14
 93
        0
 40
1.125
309
GRIDFORMAT_END
 95
        8
302
GRIDFORMAT
  1
GRIDFORMAT_BEGIN
 90
        0
 91
        1
 62
     0
 92
       -2
340
14
 93
        0
 40
1.125
309
GRIDFORMAT_END
 95
       16
302
GRIDFORMAT
  1
GRIDFORMAT_BEGIN
 90
        0
 91
        1
 62
     0
 92
       -2
340
14
 93
        0
 40
1.125
309
GRIDFORMAT_END
 95
       32
302
GRIDFORMAT
  1
GRIDFORMAT_BEGIN
 90
        0
 91
        1
 62
     0
 92
       -2
340
14
 93
        0
 40
1.125
309
GRIDFORMAT_END
309
TABLEFORMAT_END
  1
CELLSTYLE_BEGIN
 90
        3
 91
        2
300
_DATA
309
CELLSTYLE_END
  0
XRECORD
  5
3461
102
{ACAD_REACTORS
330
3460
102
}
330
3460
100
AcDbXrecord
280
     1
330
10D
  0
ENDSEC
  0
SECTION
  2
ACDSDATA
 70
     2
 71
     8
  0
ACDSSCHEMA
 90
        0
  1
AcDb_Thumbnail_Schema
  2
AcDbDs::ID
280
    10
 91
        8
  2
Thumbnail_Data
280
    15
 91
        0
101
ACDSRECORD
 95
        0
 90
        1
  2
AcDbDs::TreatedAsObjectData
280
     1
291
     1
101
ACDSRECORD
 95
        0
 90
        2
  2
AcDbDs::Legacy
280
     1
291
     1
101
ACDSRECORD
  1
AcDbDs::ID
 90
        3
  2
AcDs:Indexable
280
     1
291
     1
101
ACDSRECORD
  1
AcDbDs::ID
 90
        4
  2
AcDbDs::HandleAttribute
280
     7
282
     1
  0
ACDSSCHEMA
 90
        1
  1
AcDbDs::TreatedAsObjectDataSchema
  2
AcDbDs::TreatedAsObjectData
280
     1
 91
        0
  0
ACDSSCHEMA
 90
        2
  1
AcDbDs::LegacySchema
  2
AcDbDs::Legacy
280
     1
 91
        0
  0
ACDSSCHEMA
 90
        3
  1
AcDbDs::IndexedPropertySchema
  2
AcDs:Indexable
280
     1
 91
        0
  0
ACDSSCHEMA
 90
        4
  1
AcDbDs::HandleAttributeSchema
  2
AcDbDs::HandleAttribute
280
     7
 91
        1
284
     1
  0
ACDSRECORD
 90
        0
  2
AcDbDs::ID
280
    10
320
3FD5
  2
Thumbnail_Data
280
    15
 94
     1144
310
89504E470D0A1A0A0000000D49484452000000B40000010008030000002D3FACD700000300504C5445FFFFFFFFFFFFFFFFFF0000000000000000000000000000000000000000000000000000330000660000990000CC0000FF0033000033330033660033990033CC0033FF0066000066330066660066990066CC0066FF0099
310
000099330099660099990099CC0099FF00CC0000CC3300CC6600CC9900CCCC00CCFF00FF0000FF3300FF6600FF9900FFCC00FFFF3300003300333300663300993300CC3300FF3333003333333333663333993333CC3333FF3366003366333366663366993366CC3366FF3399003399333399663399993399CC3399FF33CC00
310
33CC3333CC6633CC9933CCCC33CCFF33FF0033FF3333FF6633FF9933FFCC33FFFF6600006600336600666600996600CC6600FF6633006633336633666633996633CC6633FF6666006666336666666666996666CC6666FF6699006699336699666699996699CC6699FF66CC0066CC3366CC6666CC9966CCCC66CCFF66FF0066
310
FF3366FF6666FF9966FFCC66FFFF9900009900339900669900999900CC9900FF9933009933339933669933999933CC9933FF9966009966339966669966999966CC9966FF9999009999339999669999999999CC9999FF99CC0099CC3399CC6699CC9999CCCC99CCFF99FF0099FF3399FF6699FF9999FFCC99FFFFCC0000CC00
310
33CC0066CC0099CC00CCCC00FFCC3300CC3333CC3366CC3399CC33CCCC33FFCC6600CC6633CC6666CC6699CC66CCCC66FFCC9900CC9933CC9966CC9999CC99CCCC99FFCCCC00CCCC33CCCC66CCCC99CCCCCCCCCCFFCCFF00CCFF33CCFF66CCFF99CCFFCCCCFFFFFF0000FF0033FF0066FF0099FF00CCFF00FFFF3300FF3333
310
FF3366FF3399FF33CCFF33FFFF6600FF6633FF6666FF6699FF66CCFF66FFFF9900FF9933FF9966FF9999FF99CCFF99FFFFCC00FFCC33FFCC66FFCC99FFCCCCFFCCFFFFFF00FFFF33FFFF66FFFF99FFFFCCFFFFFF0000000D0D0D1A1A1A2828283535354343435050505D5D5D6B6B6B787878868686939393A1A1A1AEAEAEBB
310
BBBBC9C9C9D6D6D6E4E4E4F1F1F1FFFFFF000000000000000000000000000000000000000000000000000000000000AD4AB4E40000004D4944415478DAEDC1411100000803A0F58FE9D314E69807640A650B0500000000000000000000000000000000000000000000000000000000000000000000000000000000000000E0
310
932D9429744C0486FF7F0675980000000049454E44AE42608243434343434343434343434343434343434343434343434343434343434343434343434343434343434343434343434343434343434343434343434343434343434343BF43273E32489224493A3703AB0E6C01364F218F16A721650000000049454E44AE4260
310
82000000600401480000000046108004000000600401480000000046108004000000600401480000000046108004000000600401480000000046108004FE04A871E700C52F1EE07D0401480000000046108004000000600401544E60FF6810F89500800530926F01CCF0BB00CE55D5B824ED7A360000000049454E44AE4260
310
82
  0
ACDSRECORD
 90
        0
  2
AcDbDs::ID
280
    10
320
34A0
  2
Thumbnail_Data
280
    15
 94
     2409
310
89504E470D0A1A0A0000000D4948445200000100000000B5080300000087DCD12600000300504C5445FFFFFFFFFFFFFFFFFF0000000000000000000000000000000000000000000000000000330000660000990000CC0000FF0033000033330033660033990033CC0033FF0066000066330066660066990066CC0066FF0099
310
000099330099660099990099CC0099FF00CC0000CC3300CC6600CC9900CCCC00CCFF00FF0000FF3300FF6600FF9900FFCC00FFFF3300003300333300663300993300CC3300FF3333003333333333663333993333CC3333FF3366003366333366663366993366CC3366FF3399003399333399663399993399CC3399FF33CC00
310
33CC3333CC6633CC9933CCCC33CCFF33FF0033FF3333FF6633FF9933FFCC33FFFF6600006600336600666600996600CC6600FF6633006633336633666633996633CC6633FF6666006666336666666666996666CC6666FF6699006699336699666699996699CC6699FF66CC0066CC3366CC6666CC9966CCCC66CCFF66FF0066
310
FF3366FF6666FF9966FFCC66FFFF9900009900339900669900999900CC9900FF9933009933339933669933999933CC9933FF9966009966339966669966999966CC9966FF9999009999339999669999999999CC9999FF99CC0099CC3399CC6699CC9999CCCC99CCFF99FF0099FF3399FF6699FF9999FFCC99FFFFCC0000CC00
310
33CC0066CC0099CC00CCCC00FFCC3300CC3333CC3366CC3399CC33CCCC33FFCC6600CC6633CC6666CC6699CC66CCCC66FFCC9900CC9933CC9966CC9999CC99CCCC99FFCCCC00CCCC33CCCC66CCCC99CCCCCCCCCCFFCCFF00CCFF33CCFF66CCFF99CCFFCCCCFFFFFF0000FF0033FF0066FF0099FF00CCFF00FFFF3300FF3333
310
FF3366FF3399FF33CCFF33FFFF6600FF6633FF6666FF6699FF66CCFF66FFFF9900FF9933FF9966FF9999FF99CCFF99FFFFCC00FFCC33FFCC66FFCC99FFCCCCFFCCFFFFFF00FFFF33FFFF66FFFF99FFFFCCFFFFFF0000000D0D0D1A1A1A2828283535354343435050505D5D5D6B6B6B787878868686939393A1A1A1AEAEAEBB
310
BBBBC9C9C9D6D6D6E4E4E4F1F1F1FFFFFF000000000000000000000000000000000000000000000000000000000000AD4AB4E40000024F4944415478DAEDDB4B9282401045D1DA416D8389FB5F80DBC860E03817D1828DF2D16C0CD4C697B746D803C377C8AC0F1D9453EEE1E554328F0E207D05BCAE04AEDFFA96B27ACB77
310
02400BBCB202DE7CB7F6DF02000000000000009003C04AF1DC00EEB92B20CE9F0120E11CE0B7D1CF01992BC07303742560712F6801F86C747FB1783294AF00370B17034D806B019CAFDA43DB068BA1FC3278EC011E6F06D4018E6E877033240F50ACB6D166300380273A0C2DB21E4B237E189AADFBF3ED4E07906A27E84B80
310
2A0F1096400680F8F87B0548B3159E056D9A7467019FE6AFE9CE023E4A7FCE5FA3FCA24F8486F043FC6C6701FF8D5F6BFC2C401660123ECE2F08D087F771E6446781CBADAF657D7E218021FC656BB8CC6F260CD034566F4DBFCC6F66A65B01FD8D9F4C79D3FC8FC34B0074E1A747FEC9B59BF63F46CEE1E7D3DCEDDAECAFF4
310
32C7E13BF9D7841701B8937F6D7A0980797E7B227D91782638FEF05C7805001FCF796E3BF9B19F03F067E73C39806DE915E600DB92FEFB01B685977D2002802C00EF0CD102B4002D400B0000000000000000000000000000000000000000000000000000000000000000000000000000000000000000000000000000000000
310
000000000000000000800E002F4D510154009320000000000000000000000000000000000000000000000000000000000000000000000000000000000000000000000000000000000000000000000000000000A003C05B63DF3E4EE13D1E0FD50AD808F0FD1510C8AC6901E13102F8EC2A4005ECA702FE671FB0C755807DC0
310
A31628990715E0C5938F1F33A77DEBE50B0EC20000000049454E44AE4260821CD144134D34D144134D34D144134D34D144134D34D144134D34D144134DF48FA279A38899E62D39A289269A68A289269A68A289269A68A289269A68A289269A68A289269A68A2F7687E45E833AD92D3EAB5E7CAE3B5AD89FE9C2F633527F97F
310
7FF4ABEFD8FE527970F7F83BF437E8B6ED9D83A4EF760000000049454E44AE426082D17B8253F935CB24C07AE9779C1FF3CFD47D9C5E82BDCCEFC72EF81C941FFB85717D7C4805EC6723A9BD1E38FD808FF55786F96194717ECC3F2C87F8715B05E961D01EF38279BD51BC002F3FA1002A7E2A018325C0CF4F67808C9F4CC0
310
30C4F05309A0E30F098869038645C010E6273240C87FD208FAD2017F044CF07A089CF09318A0E43FCC05B05F8C191630F30F51FC040248F9C3552042400A7FB9015A7E4700ACCB7015A2FA01BB80107FA900627E4F0400C902E63A10C95F68809ADF5B0580A33191600444F0170920E73F6803ACF3C1830254027F89017AFE
310
F346303502E2F8F30D30F09F1E0691D20826F0E70AE0E027129010FFF90658F8090524F06709E0E13F1180340129FC390698F84F86C5B7FBD4446483A9FCE906B8F8CF0468B1101490CA9F2A808D3F5DC0DB2720993FD1001F7FF09B21E50C8A7A0464F0270960E4271190C39F6280933FD008FABE177004E4F1C71B60E5CF
310
BC74F643C01F2B8097BF5C40367FA40166FE620105FC5102B8F94B0594F0C71860E72F1450C61F16C0CF5F26A0903F684080BF4840317FC080047F890002FE3301A3087F81000AFE1303A312E1CF1740C37F28408A3F5B0011FF910131FE5C0164FC7E0372FC990208F97D0204F94BAA00D506E24AFE822A40B681B8923FBF
310
0A106E202EE42F3A0CB21810E62F6A03380448F397B4011C06C4F90BDA000E01F2FC04638284062EE0AF45C0BCFE2BF86B1270097F350214AEE1AF47C045FCD50818FFB6E00AFE5A048CDF3A20CF5F898039FE71057F1D02AEAAFFB50858F9F15001FBFEC7AD04AC97B725C4FFCD04C42D6AD47FDC50406059ABFDC3D304D8
310
ED7F3393AF7F6804B8C73F342240851BB708019EE37F3302C241F0092EE8EDFFA01901EA1328A1E5C6ED12F0B8EBC7C36B1216C0541A9F7CBD39035D407D022AB8935417F02003550AB8FE868A5D405D063C9368F9142169B22DB42660BDBD9939D7983EC19A3601FB06E5B9298A39475BA5029431C5BC06BDCD33670B50DA
310
0DB0BE4FD679C9CD7971F685EA1660458036C19A3E9DB83EC793D267E05B679F770468F4ED08D027585B021BCE5DBE60F2BBB70133EB51ED6DC0E38F025DC035021E5934018F2D5D4017D00574015D4017D00574015D4017D0053C58C0BF0717FD36C24F2DFF03A677A7AAA6635E8F0000000049454E44AE426082
  0
ACDSRECORD
 90
        0
  2
AcDbDs::ID
280
    10
320
22
  2
Thumbnail_Data
280
    15
 94
     2410
310
89504E470D0A1A0A0000000D49484452000001000000009E0803000000EAB724D300000300504C5445000000FFFFFF0000000000000000000000000000000000000000000000000000000000330000660000990000CC0000FF0033000033330033660033990033CC0033FF0066000066330066660066990066CC0066FF0099
310
000099330099660099990099CC0099FF00CC0000CC3300CC6600CC9900CCCC00CCFF00FF0000FF3300FF6600FF9900FFCC00FFFF3300003300333300663300993300CC3300FF3333003333333333663333993333CC3333FF3366003366333366663366993366CC3366FF3399003399333399663399993399CC3399FF33CC00
310
33CC3333CC6633CC9933CCCC33CCFF33FF0033FF3333FF6633FF9933FFCC33FFFF6600006600336600666600996600CC6600FF6633006633336633666633996633CC6633FF6666006666336666666666996666CC6666FF6699006699336699666699996699CC6699FF66CC0066CC3366CC6666CC9966CCCC66CCFF66FF0066
310
FF3366FF6666FF9966FFCC66FFFF9900009900339900669900999900CC9900FF9933009933339933669933999933CC9933FF9966009966339966669966999966CC9966FF9999009999339999669999999999CC9999FF99CC0099CC3399CC6699CC9999CCCC99CCFF99FF0099FF3399FF6699FF9999FFCC99FFFFCC0000CC00
310
33CC0066CC0099CC00CCCC00FFCC3300CC3333CC3366CC3399CC33CCCC33FFCC6600CC6633CC6666CC6699CC66CCCC66FFCC9900CC9933CC9966CC9999CC99CCCC99FFCCCC00CCCC33CCCC66CCCC99CCCCCCCCCCFFCCFF00CCFF33CCFF66CCFF99CCFFCCCCFFFFFF0000FF0033FF0066FF0099FF00CCFF00FFFF3300FF3333
310
FF3366FF3399FF33CCFF33FFFF6600FF6633FF6666FF6699FF66CCFF66FFFF9900FF9933FF9966FF9999FF99CCFF99FFFFCC00FFCC33FFCC66FFCC99FFCCCCFFCCFFFFFF00FFFF33FFFF66FFFF99FFFFCCFFFFFF0000000D0D0D1A1A1A2828283535354343435050505D5D5D6B6B6B787878868686939393A1A1A1AEAEAEBB
310
BBBBC9C9C9D6D6D6E4E4E4F1F1F1FFFFFF0000000000000000000000000000000000000000000000000000000000003AE5ACE9000001DD4944415478DAEDDACB51C33014055075E036B249FF05A48D37A9405BF6D890646C83C0848041EFDC0D6193F13DFA58CEB814111111111111111129E5A9D36C07788CDF77BFE74197
310
73C7F79801E54F0DDD0E3300000000000000D898283539404D3E036A46807A4B692E80140053FDC8BC094E0617809A04A02E32FD1FCD9D20C50C28F5D8DC09BB06B84C80F1EFF97C6EDC0952DC064FA763F34E9803E018E7D6492007C07812CC75145ED53D95438693606D1EFD46801C07A1E5DD3F35C0FAD097046081F11E
310
40AA93E0BCECE1D0EA9F01E030265AFDBB7E1CBE968F688E7FDF0063F9EB7360B37FBF0053FBF9F92FD54970B84CFC0DFD3B041886A9FDEA40FCFA29A27B806118AE7BDEAA7F4444E733602C3FCC37BD59FF46F9AE005E867E5EFAF6316AFCFC95EF0F308DF1DBFEF1C1D8F7F830B4ECFF69F9DE0016FD37B5EFEC079159FF
310
8DEDBB02A8B7CD2076B8F2FD01EA3DEDFB5A02F1F5F6BDDD0677BC72EF0801F875002F4B9B0166804D10000000000000000000000000000000000000000000000000000000000000000000000000000000000000000000408F00DE15B6042C014BC01200000000000000000000000000000000000000000000000000000000
310
00000000000000000000000000000000000000E03F033C03BC74B6866A0EEA950000000049454E44AE4260820049454E44AE42608249454E44AE42608208400002108000042000010840000210800004E802803F9CFCF714B7AFF50AD0ED4F67D5F7DE1D3EE943B619B309BE97C10F6F33DAAEDDEDD4D40000000049454E44
310
AE4260821B007C46C8B5006C65CF00D07F0CE6DF7BEDAD1921405DA05F0F1AC05AC08FE33761D756C90911FCF3010E80D786720D402E0050A201904B059332C1F70194E907CB8C06B75E406F18819AA6C4CA5592AA1240B12931385CA02200E586C3A05C00FB9E293100C089017C01609DD11103AA01703C7E1600B03160AC
310
A8250098916464B180AEEBCC7070C0E32E44BD458F2774DB2DEF633CFA1D0A5492DA6380791AC4034AEAF70388D35FA092D41E033A0280A2FABD0022F5E701003706502CA0AC7E1F8058FD594110CE31407580C480C2FA3D00A2F5E700385592312E70EB545D183A47B4724E90CE07114E7806B0A5A2D895CBB8C0B992CED8
310
ABDE0530FCAE3900C001907689640070D60FA32110BA5C8A7722272C36D765D97F3A00384F482CBD80B181C0E57EA0FF0220497F620CB8E957A399187E26E07D3AC8D3AF630064EA4F0370D7AF0184083C3C5DA6C1B80012F5271752BAE85F01A88500C4C8813C87E90E02A9FA530B295DF51B002B016F7B7A3AC80A180780
310
64FD8985949C4525FB7D0A767DC8AFBFFF56CB890197428AFB37306C2B645F935A1CC055BF2DAC3856D512AAC8CC5EFDC70EE1D31C2BBE6B78732228F17554A5960929003C85445D90B0FB050A002C3C45DC631D1C30FD7A47AA5B48E93A3E736F73FF0441E8B1D627CF0500D8ED0A0178D2AF3C1E4020B077A440DD611C9E
310
927B05C063215DA743043200A72C6D0600C06DA0980B840A09839B1F91728FA32C4B8E0B10F41703102CA47C7CEA1A68004E0C921F9C54DCB77010C4BE691EA2F4873CE043FA6D050952AF0D51FA03043EA41FAB2475ED96835AAE594B328017F5AF1524A8595B58CB3D6B4B8C016FEAB7419078AF90164FD61A516DE7BFF4
310
47E7E6716FE6E7EBACFC03B106401680EFB43F3FC715F144FCFEE00000000049454E44AE4260825E594B0CF1DC9CA29B1E725522E68053BFE42600591F0BCDB0260028AD7AA05F720B005CAEC65841CE0E0C0B9656FD7CAC7B00A093036A2DEA4BA908F893FE9F57CE72BBFEA40BFCADFEA70CEF4AE2EF0100C81A408E4007
310
C081007B00DCADE47F326F1300320700D0017007F02BF61F5CE932BBDF126E5C0000000049454E44AE42608274D30FD5E40E00F95536E355033B8B97C0FC0EC01D00E0D4806A00C193493403F23B403700C03AA162BD2227930200F776003CFD801BFDC7CF83FFD1FF7342AA23408D0BF79CC51A22C0003A20D03D007AFE73
310
626F0A810E00A07300DDA7000360B1582C168BC562B1582C168BC562B1582C168BC57A5CFF0033CABB49EA584FF10000000049454E44AE4260825D47C80488B61028BE272A75AFE27417D20F720540744A153CC82B1F3ABD5EFCA3419426996F79CB5BDED254FE017A14838B8A5389C40000000049454E44AE426082
  0
ENDSEC
  0
EOF
